  0
SECTION
  2
HEADER
  9
$ACADVER
  1
AC1015
  9
$ACADMAINTVER
 70
    20
  9
$DWGCODEPAGE
  3
ANSI_932
  9
$INSBASE
 10
0.0
 20
0.0
 30
0.0
  9
$EXTMIN
 10
429.2648665400661
 20
206.3459892267817
 30
-0.0015258207003583
  9
$EXTMAX
 10
1271.382893259921
 20
801.7253577990388
 30
0.0000000349246037
  9
$LIMMIN
 10
0.0
 20
0.0
  9
$LIMMAX
 10
0.0
 20
0.0
  9
$ORTHOMODE
 70
     0
  9
$REGENMODE
 70
     1
  9
$FILLMODE
 70
     1
  9
$QTEXTMODE
 70
     0
  9
$MIRRTEXT
 70
     1
  9
$LTSCALE
 40
1.0
  9
$ATTMODE
 70
     1
  9
$TEXTSIZE
 40
0.0
  9
$TRACEWID
 40
0.05
  9
$TEXTSTYLE
  7
Standard
  9
$CLAYER
  8
0
  9
$CELTYPE
  6
Continuous
  9
$CECOLOR
 62
   256
  9
$CELTSCALE
 40
1.0
  9
$DISPSILH
 70
     0
  9
$DIMSCALE
 40
1.0
  9
$DIMASZ
 40
0.18
  9
$DIMEXO
 40
0.0625
  9
$DIMDLI
 40
0.38
  9
$DIMRND
 40
0.0
  9
$DIMDLE
 40
0.0
  9
$DIMEXE
 40
0.18
  9
$DIMTP
 40
0.0
  9
$DIMTM
 40
0.0
  9
$DIMTXT
 40
0.18
  9
$DIMCEN
 40
0.09
  9
$DIMTSZ
 40
0.0
  9
$DIMTOL
 70
     0
  9
$DIMLIM
 70
     0
  9
$DIMTIH
 70
     1
  9
$DIMTOH
 70
     1
  9
$DIMSE1
 70
     0
  9
$DIMSE2
 70
     0
  9
$DIMTAD
 70
     0
  9
$DIMZIN
 70
     0
  9
$DIMBLK
  1

  9
$DIMASO
 70
     1
  9
$DIMSHO
 70
     1
  9
$DIMPOST
  1

  9
$DIMAPOST
  1

  9
$DIMALT
 70
     0
  9
$DIMALTD
 70
     2
  9
$DIMALTF
 40
25.4
  9
$DIMLFAC
 40
1.0
  9
$DIMTOFL
 70
     0
  9
$DIMTVP
 40
0.0
  9
$DIMTIX
 70
     0
  9
$DIMSOXD
 70
     0
  9
$DIMSAH
 70
     0
  9
$DIMBLK1
  1

  9
$DIMBLK2
  1

  9
$DIMSTYLE
  2
Standard
  9
$DIMCLRD
 70
     0
  9
$DIMCLRE
 70
     0
  9
$DIMCLRT
 70
     0
  9
$DIMTFAC
 40
1.0
  9
$DIMGAP
 40
0.09
  9
$DIMJUST
 70
     0
  9
$DIMSD1
 70
     0
  9
$DIMSD2
 70
     0
  9
$DIMTOLJ
 70
     1
  9
$DIMTZIN
 70
     0
  9
$DIMALTZ
 70
     0
  9
$DIMALTTZ
 70
     0
  9
$DIMUPT
 70
     0
  9
$DIMDEC
 70
     4
  9
$DIMTDEC
 70
     4
  9
$DIMALTU
 70
     2
  9
$DIMALTTD
 70
     2
  9
$DIMTXSTY
  7
Standard
  9
$DIMAUNIT
 70
     0
  9
$DIMADEC
 70
     0
  9
$DIMALTRND
 40
0.0
  9
$DIMAZIN
 70
     0
  9
$DIMDSEP
 70
     0
  9
$DIMATFIT
 70
     3
  9
$DIMFRAC
 70
     0
  9
$DIMLDRBLK
  1

  9
$DIMLUNIT
 70
     2
  9
$DIMLWD
 70
     0
  9
$DIMLWE
 70
     0
  9
$DIMTMOVE
 70
     0
  9
$LUNITS
 70
     2
  9
$LUPREC
 70
     4
  9
$SKETCHINC
 40
0.1
  9
$FILLETRAD
 40
0.0
  9
$AUNITS
 70
     0
  9
$AUPREC
 70
     0
  9
$MENU
  1
acad
  9
$ELEVATION
 40
0.0
  9
$PELEVATION
 40
0.0
  9
$THICKNESS
 40
0.0
  9
$LIMCHECK
 70
     0
  9
$CHAMFERA
 40
0.0
  9
$CHAMFERB
 40
0.0
  9
$CHAMFERC
 40
0.0
  9
$CHAMFERD
 40
0.0
  9
$SKPOLY
 70
     0
  9
$TDCREATE
 40
2456367.447845949
  9
$TDUCREATE
 40
2456367.072845949
  9
$TDUPDATE
 40
2456386.719970694
  9
$TDUUPDATE
 40
2456386.344970694
  9
$TDINDWG
 40
0.0034832523
  9
$TDUSRTIMER
 40
0.0034825347
  9
$USRTIMER
 70
     1
  9
$ANGBASE
 50
0.0
  9
$ANGDIR
 70
     0
  9
$PDMODE
 70
     3
  9
$PDSIZE
 40
-1.0
  9
$PLINEWID
 40
0.0
  9
$SPLFRAME
 70
     0
  9
$SPLINETYPE
 70
     6
  9
$SPLINESEGS
 70
     8
  9
$HANDSEED
  5
9F4
  9
$SURFTAB1
 70
     6
  9
$SURFTAB2
 70
     6
  9
$SURFTYPE
 70
     6
  9
$SURFU
 70
     6
  9
$SURFV
 70
     6
  9
$UCSBASE
  2

  9
$UCSNAME
  2

  9
$UCSORG
 10
0.0
 20
0.0
 30
0.0
  9
$UCSXDIR
 10
1.0
 20
0.0
 30
0.0
  9
$UCSYDIR
 10
0.0
 20
1.0
 30
0.0
  9
$UCSORTHOREF
  2

  9
$UCSORTHOVIEW
 70
     0
  9
$UCSORGTOP
 10
0.0
 20
0.0
 30
0.0
  9
$UCSORGBOTTOM
 10
0.0
 20
0.0
 30
0.0
  9
$UCSORGLEFT
 10
0.0
 20
0.0
 30
0.0
  9
$UCSORGRIGHT
 10
0.0
 20
0.0
 30
0.0
  9
$UCSORGFRONT
 10
0.0
 20
0.0
 30
0.0
  9
$UCSORGBACK
 10
0.0
 20
0.0
 30
0.0
  9
$PUCSBASE
  2

  9
$PUCSNAME
  2

  9
$PUCSORG
 10
0.0
 20
0.0
 30
0.0
  9
$PUCSXDIR
 10
1.0
 20
0.0
 30
0.0
  9
$PUCSYDIR
 10
0.0
 20
1.0
 30
0.0
  9
$PUCSORTHOREF
  2

  9
$PUCSORTHOVIEW
 70
     0
  9
$PUCSORGTOP
 10
0.0
 20
0.0
 30
0.0
  9
$PUCSORGBOTTOM
 10
0.0
 20
0.0
 30
0.0
  9
$PUCSORGLEFT
 10
0.0
 20
0.0
 30
0.0
  9
$PUCSORGRIGHT
 10
0.0
 20
0.0
 30
0.0
  9
$PUCSORGFRONT
 10
0.0
 20
0.0
 30
0.0
  9
$PUCSORGBACK
 10
0.0
 20
0.0
 30
0.0
  9
$USERI1
 70
     0
  9
$USERI2
 70
     0
  9
$USERI3
 70
     0
  9
$USERI4
 70
     0
  9
$USERI5
 70
     0
  9
$USERR1
 40
0.0
  9
$USERR2
 40
0.0
  9
$USERR3
 40
0.0
  9
$USERR4
 40
0.0
  9
$USERR5
 40
0.0
  9
$WORLDVIEW
 70
     1
  9
$SHADEDGE
 70
     3
  9
$SHADEDIF
 70
    70
  9
$TILEMODE
 70
     1
  9
$MAXACTVP
 70
    16
  9
$PINSBASE
 10
0.0
 20
0.0
 30
0.0
  9
$PLIMCHECK
 70
     0
  9
$PEXTMIN
 10
1.000000000000000E+20
 20
1.000000000000000E+20
 30
1.000000000000000E+20
  9
$PEXTMAX
 10
-1.000000000000000E+20
 20
-1.000000000000000E+20
 30
-1.000000000000000E+20
  9
$PLIMMIN
 10
0.0
 20
0.0
  9
$PLIMMAX
 10
12.0
 20
9.0
  9
$UNITMODE
 70
     0
  9
$VISRETAIN
 70
     0
  9
$PLINEGEN
 70
     1
  9
$PSLTSCALE
 70
     0
  9
$TREEDEPTH
 70
  3020
  9
$CMLSTYLE
  2
Standard
  9
$CMLJUST
 70
     0
  9
$CMLSCALE
 40
1.0
  9
$PROXYGRAPHICS
 70
     0
  9
$MEASUREMENT
 70
     0
  9
$CELWEIGHT
370
     0
  9
$ENDCAPS
280
     0
  9
$JOINSTYLE
280
     0
  9
$LWDISPLAY
290
     0
  9
$INSUNITS
 70
     0
  9
$HYPERLINKBASE
  1

  9
$STYLESHEET
  1
MONOCHROME.STB
  9
$XEDIT
290
     1
  9
$CEPSNTYPE
380
     0
  9
$PSTYLEMODE
290
     0
  9
$FINGERPRINTGUID
  2

  9
$VERSIONGUID
  2
{44F38F4A-C69A-43B0-B93D-C4F671D6FAC2}
  9
$EXTNAMES
290
     1
  9
$PSVPSCALE
 40
0.0
  9
$OLESTARTUP
290
     0
  0
ENDSEC
  0
SECTION
  2
CLASSES
  0
CLASS
  1
IMAGE
  2
AcDbRasterImage
  3
ISM
 90
    32895
280
     0
281
     1
  0
CLASS
  1
DICTIONARYVAR
  2
AcDbDictionaryVar
  3
ObjectDBX Classes
 90
        0
280
     0
281
     0
  0
CLASS
  1
RASTERVARIABLES
  2
AcDbRasterVariables
  3
ISM
 90
    32768
280
     0
281
     0
  0
CLASS
  1
IMAGEDEF
  2
AcDbRasterImageDef
  3
ISM
 90
    32768
280
     0
281
     0
  0
CLASS
  1
IMAGEDEF_REACTOR
  2
AcDbRasterImageDefReactor
  3
ISM
 90
    32769
280
     0
281
     0
  0
CLASS
  1
IDBUFFER
  2
AcDbIdBuffer
  3
ObjectDBX Classes
 90
    32768
280
     0
281
     0
  0
CLASS
  1
SPATIAL_FILTER
  2
AcDbSpatialFilter
  3
ObjectDBX Classes
 90
    32768
280
     0
281
     0
  0
CLASS
  1
SORTENTSTABLE
  2
AcDbSortentsTable
  3
ObjectDBX Classes
 90
    32768
280
     0
281
     0
  0
CLASS
  1
LAYER_INDEX
  2
AcDbLayerIndex
  3
ObjectDBX Classes
 90
    32768
280
     0
281
     0
  0
CLASS
  1
SPATIAL_INDEX
  2
AcDbSpatialIndex
  3
ObjectDBX Classes
 90
    32768
280
     0
281
     0
  0
CLASS
  1
OBJECT_PTR
  2
CAseDLPNTableRecord
  3
ASE-LPNTableRecord
 90
    32769
280
     0
281
     0
  0
CLASS
  1
LAYOUT
  2
AcDbLayout
  3
ObjectDBX Classes
 90
        0
280
     0
281
     0
  0
CLASS
  1
PLOTSETTINGS
  2
AcDbPlotSettings
  3
ObjectDBX Classes
 90
    32768
280
     0
281
     0
  0
CLASS
  1
ACDBDICTIONARYWDFLT
  2
AcDbDictionaryWithDefault
  3
ObjectDBX Classes
 90
        0
280
     0
281
     0
  0
CLASS
  1
ACDBPLACEHOLDER
  2
AcDbPlaceHolder
  3
ObjectDBX Classes
 90
        0
280
     0
281
     0
  0
CLASS
  1
VBA_PROJECT
  2
AcDbVbaProject
  3
acad
 90
    32768
280
     0
281
     0
  0
CLASS
  1
WIPEOUT
  2
AcDbWipeout
  3
"WipeOut|Product Desc: Object Enabler for WipeOut entity^I^I^I^I^I^I|Company: Autodesk, Inc.^I^I^I^I^I^I|WEB Address: www.autodesk.com"
 90
    32895
280
     0
281
     1
  0
CLASS
  1
WIPEOUTVARIABLES
  2
AcDbWipeoutVariables
  3
"WipeOut|Product Desc:     WipeOut Dbx Application|Company:          Autodesk, Inc.|WEB Address:      www.autodesk.com"
 90
        0
280
     0
281
     0
  0
CLASS
  1
RTEXT
  2
RText
  3
RText|AutoCAD Express Tool|expresstools@autodesk.com
 90
    32768
280
     0
281
     1
  0
CLASS
  1
ARCALIGNEDTEXT
  2
AcDbArcAlignedText
  3
ATEXT|AutoCAD Express Tool|expresstools@autodesk.com
 90
    32768
280
     0
281
     1
  0
ENDSEC
  0
SECTION
  2
TABLES
  0
TABLE
  2
VPORT
  5
7
330
0
100
AcDbSymbolTable
 70
     2
  0
VPORT
  5
9EC
330
7
100
AcDbSymbolTableRecord
100
AcDbViewportTableRecord
  2
*Active
 70
     0
 10
0.0
 20
0.0
 11
1.0
 21
1.0
 12
850.3238798999936
 22
504.0356735129103
 13
0.0
 23
0.0
 14
1.0
 24
1.0
 15
0.0
 25
0.0
 16
0.0
 26
0.0
 36
1.0
 17
0.0
 27
0.0
 37
0.0
 40
600.719093850932
 41
2.724550898203592
 42
50.0
 43
0.0
 44
0.0
 50
0.0
 51
0.0
 71
     0
 72
   100
 73
     1
 74
     1
 75
     0
 76
     0
 77
     0
 78
     0
281
     0
 65
     0
110
0.0
120
0.0
130
0.0
111
1.0
121
0.0
131
0.0
112
0.0
122
1.0
132
0.0
 79
     0
146
0.0
  0
ENDTAB
  0
TABLE
  2
LTYPE
  5
4
330
0
100
AcDbSymbolTable
 70
    12
  0
LTYPE
  5
11
330
4
100
AcDbSymbolTableRecord
100
AcDbLinetypeTableRecord
  2
ByBlock
 70
     0
  3

 72
    65
 73
     0
 40
0.0
  0
LTYPE
  5
12
330
4
100
AcDbSymbolTableRecord
100
AcDbLinetypeTableRecord
  2
ByLayer
 70
     0
  3

 72
    65
 73
     0
 40
0.0
  0
LTYPE
  5
13
330
4
100
AcDbSymbolTableRecord
100
AcDbLinetypeTableRecord
  2
Continuous
 70
     0
  3
Solid line
 72
    65
 73
     0
 40
0.0
  0
LTYPE
  5
24
330
4
100
AcDbSymbolTableRecord
100
AcDbLinetypeTableRecord
  2
DOT
 70
     0
  3
. . . . . . . . 
 72
    65
 73
     2
 40
1.0
 49
0.0
 74
     0
 49
-1.0
 74
     0
  0
LTYPE
  5
25
330
4
100
AcDbSymbolTableRecord
100
AcDbLinetypeTableRecord
  2
DASHED
 70
     0
  3
___  ___  ___  ___  
 72
    65
 73
     2
 40
4.0
 49
3.0
 74
     0
 49
-1.0
 74
     0
  0
LTYPE
  5
26
330
4
100
AcDbSymbolTableRecord
100
AcDbLinetypeTableRecord
  2
HIDDEN
 70
     0
  3
__ __ __ __ 
 72
    65
 73
     2
 40
3.0
 49
2.0
 74
     0
 49
-1.0
 74
     0
  0
LTYPE
  5
27
330
4
100
AcDbSymbolTableRecord
100
AcDbLinetypeTableRecord
  2
STITCH
 70
     0
  3
_ _ _ _ 
 72
    65
 73
     2
 40
2.0
 49
1.0
 74
     0
 49
-1.0
 74
     0
  0
LTYPE
  5
28
330
4
100
AcDbSymbolTableRecord
100
AcDbLinetypeTableRecord
  2
CENTER
 70
     0
  3
______  __  ______  __  
 72
    65
 73
     4
 40
43.0
 49
40.0
 74
     0
 49
-1.0
 74
     0
 49
1.0
 74
     0
 49
-1.0
 74
     0
  0
LTYPE
  5
29
330
4
100
AcDbSymbolTableRecord
100
AcDbLinetypeTableRecord
  2
DASHDOT
 70
     0
  3
____ . ____ . 
 72
    65
 73
     4
 40
32.0
 49
30.0
 74
     0
 49
-1.0
 74
     0
 49
0.0
 74
     0
 49
-1.0
 74
     0
  0
LTYPE
  5
2A
330
4
100
AcDbSymbolTableRecord
100
AcDbLinetypeTableRecord
  2
BORDER
 70
     0
  3
__ . __ . 
 72
    65
 73
     4
 40
22.0
 49
20.0
 74
     0
 49
-1.0
 74
     0
 49
0.0
 74
     0
 49
-1.0
 74
     0
  0
LTYPE
  5
2B
330
4
100
AcDbSymbolTableRecord
100
AcDbLinetypeTableRecord
  2
CUTTING
 70
     0
  3
________   ___   ___   
 72
    65
 73
     6
 40
45.0
 49
40.0
 74
     0
 49
-1.0
 74
     0
 49
1.0
 74
     0
 49
-1.0
 74
     0
 49
1.0
 74
     0
 49
-1.0
 74
     0
  0
LTYPE
  5
2C
330
4
100
AcDbSymbolTableRecord
100
AcDbLinetypeTableRecord
  2
PHANTOM
 70
     0
  3
______  __  __  
 72
    65
 73
     6
 40
35.0
 49
30.0
 74
     0
 49
-1.0
 74
     0
 49
1.0
 74
     0
 49
-1.0
 74
     0
 49
1.0
 74
     0
 49
-1.0
 74
     0
  0
LTYPE
  5
2D
330
4
100
AcDbSymbolTableRecord
100
AcDbLinetypeTableRecord
  2
DIVIDE
 70
     0
  3
____ . . ____ . . 
 72
    65
 73
     6
 40
23.0
 49
20.0
 74
     0
 49
-1.0
 74
     0
 49
0.0
 74
     0
 49
-1.0
 74
     0
 49
0.0
 74
     0
 49
-1.0
 74
     0
  0
LTYPE
  5
2C1
330
4
100
AcDbSymbolTableRecord
100
AcDbLinetypeTableRecord
  2
CENTER2
 70
     0
  3

 72
    65
 73
     4
 40
23.0
 49
20.0
 74
     0
 49
-1.0
 74
     0
 49
1.0
 74
     0
 49
-1.0
 74
     0
  0
ENDTAB
  0
TABLE
  2
LAYER
  5
2
102
{ACAD_XDICTIONARY
360
2C5
102
}
330
0
100
AcDbSymbolTable
 70
     6
  0
LAYER
  5
14
330
2
100
AcDbSymbolTableRecord
100
AcDbLayerTableRecord
  2
0
 70
     0
 62
     7
  6
Continuous
370
    -3
390
1D
  0
LAYER
  5
3D
330
2
100
AcDbSymbolTableRecord
100
AcDbLayerTableRecord
  2
寸法線
 70
     0
 62
     7
  6
Continuous
370
    -3
390
1F
  0
LAYER
  5
90
330
2
100
AcDbSymbolTableRecord
100
AcDbLayerTableRecord
  2
ﾚｲﾔｰ1
 70
     0
 62
     7
  6
Continuous
370
    -3
390
1F
  0
LAYER
  5
1E9
330
2
100
AcDbSymbolTableRecord
100
AcDbLayerTableRecord
  2
Layer1
 70
     0
 62
     7
  6
Continuous
370
    -3
390
1F
  0
LAYER
  5
2C2
330
2
100
AcDbSymbolTableRecord
100
AcDbLayerTableRecord
  2
DEFPOINTS
 70
     0
 62
     7
  6
Continuous
290
     0
370
    -3
390
1D
  0
LAYER
  5
2C3
330
2
100
AcDbSymbolTableRecord
100
AcDbLayerTableRecord
  2
____1
 70
     0
 62
     3
  6
CENTER2
370
    -3
390
1D
  0
ENDTAB
  0
TABLE
  2
STYLE
  5
3
330
0
100
AcDbSymbolTable
 70
     2
  0
STYLE
  5
17
330
3
100
AcDbSymbolTableRecord
100
AcDbTextStyleTableRecord
  2
Standard
 70
     0
 40
0.0
 41
1.0
 50
0.0
 71
     0
 42
0.0
  3
txt
  4
extfont
  0
STYLE
  5
2C4
330
3
100
AcDbSymbolTableRecord
100
AcDbTextStyleTableRecord
  2
STYLE1
 70
     0
 40
0.0
 41
1.0
 50
0.0
 71
     0
 42
0.35
  3
ＭＳ ゴシック
  4

  0
ENDTAB
  0
TABLE
  2
VIEW
  5
5
330
0
100
AcDbSymbolTable
 70
     0
  0
ENDTAB
  0
TABLE
  2
UCS
  5
6
330
0
100
AcDbSymbolTable
 70
     0
  0
ENDTAB
  0
TABLE
  2
APPID
  5
8
330
0
100
AcDbSymbolTable
 70
     2
  0
APPID
  5
16
330
8
100
AcDbSymbolTableRecord
100
AcDbRegAppTableRecord
  2
ACAD
 70
     0
  0
APPID
  5
2B8
330
8
100
AcDbSymbolTableRecord
100
AcDbRegAppTableRecord
  2
DCO15
 70
     0
  0
ENDTAB
  0
TABLE
  2
DIMSTYLE
  5
9
330
0
100
AcDbSymbolTable
 70
     3
100
AcDbDimStyleTable
 71
     0
  0
DIMSTYLE
105
18
330
9
100
AcDbSymbolTableRecord
100
AcDbDimStyleTableRecord
  2
Standard
 70
     0
340
17
  0
DIMSTYLE
105
2E
330
9
100
AcDbSymbolTableRecord
100
AcDbDimStyleTableRecord
  2
VELDIM0
 70
     0
 41
6.0
 44
2.0
 46
5.0
 73
     0
 74
     0
 78
     8
140
5.9972220421
271
     3
340
17
  0
DIMSTYLE
105
6C
330
9
100
AcDbSymbolTableRecord
100
AcDbDimStyleTableRecord
  2
VELDIM1
 70
     0
 41
6.0
 44
1.25
 46
5.0
 73
     0
 74
     0
 78
     8
140
5.9972220421
271
     3
340
17
  0
ENDTAB
  0
TABLE
  2
BLOCK_RECORD
  5
1
330
0
100
AcDbSymbolTable
 70
     2
  0
BLOCK_RECORD
  5
A
330
1
100
AcDbSymbolTableRecord
100
AcDbBlockTableRecord
  2
*MODEL_SPACE
340
20
  0
BLOCK_RECORD
  5
B
330
1
100
AcDbSymbolTableRecord
100
AcDbBlockTableRecord
  2
*PAPER_SPACE
340
21
  0
BLOCK_RECORD
  5
22C
330
1
100
AcDbSymbolTableRecord
100
AcDbBlockTableRecord
  2
CLUMP0
340
0
  0
BLOCK_RECORD
  5
289
330
1
100
AcDbSymbolTableRecord
100
AcDbBlockTableRecord
  2
CLUMP1
340
0
  0
ENDTAB
  0
ENDSEC
  0
SECTION
  2
BLOCKS
  0
BLOCK
  5
D
330
A
100
AcDbEntity
  8
0
100
AcDbBlockBegin
  2
*MODEL_SPACE
 70
     0
 10
0.0
 20
0.0
 30
0.0
  3
*MODEL_SPACE
  1

  0
ENDBLK
  5
E
330
A
100
AcDbEntity
  8
0
100
AcDbBlockEnd
  0
BLOCK
  5
F
330
B
100
AcDbEntity
 67
     1
  8
0
100
AcDbBlockBegin
  2
*PAPER_SPACE
 70
     0
 10
0.0
 20
0.0
 30
0.0
  3
*PAPER_SPACE
  1

  0
ENDBLK
  5
10
330
B
100
AcDbEntity
 67
     1
  8
0
100
AcDbBlockEnd
  0
BLOCK
  5
22E
330
22C
100
AcDbEntity
  8
0
100
AcDbBlockBegin
  2
CLUMP0
 70
     0
 10
0.0
 20
0.0
 30
0.0
  3
CLUMP0
  1

  0
ARC
  5
22F
330
22C
100
AcDbEntity
  8
Layer1
 62
     5
370
    18
100
AcDbCircle
 10
509.4609298434
 20
-990.7124829049999
 30
0.0
 40
1000.0
100
AcDbArc
 50
51.001745706
 51
75.07556604760001
  0
ARC
  5
230
330
22C
100
AcDbEntity
  8
Layer1
 62
     5
370
    18
100
AcDbCircle
 10
509.4609298434
 20
-990.7124829049999
 30
0.0
 40
1032.0
100
AcDbArc
 50
52.4261399116
 51
70.3936859647
  0
ARC
  5
231
330
22C
100
AcDbEntity
  8
Layer1
 62
     5
370
    18
100
AcDbCircle
 10
767.7784481555002
 20
-21.5473474749
 30
0.0
 40
3.0
100
AcDbArc
 50
187.4622169762
 51
255.0755660475999
  0
LINE
  5
232
330
22C
100
AcDbEntity
  8
Layer1
 62
     5
370
    18
100
AcDbLine
 10
764.8038559963
 20
-21.9369645769
 30
0.0
 11
764.8038559963
 21
-18.5473474749
 31
0.0
  0
LINE
  5
233
330
22C
100
AcDbEntity
  8
Layer1
 62
     5
370
    18
100
AcDbLine
 10
764.8038559963
 20
-18.5473474749
 30
0.0
 11
855.7540852108997
 21
-18.5473474749
 31
0.0
  0
LINE
  5
234
330
22C
100
AcDbEntity
  8
Layer1
 62
     5
370
    18
100
AcDbLine
 10
1138.7576422709
 20
-172.7823833683
 30
0.0
 11
1138.7576422709
 21
-213.5473474749
 31
0.0
  0
ENDBLK
  5
235
330
22C
100
AcDbEntity
  8
0
100
AcDbBlockEnd
  0
BLOCK
  5
28B
330
289
100
AcDbEntity
  8
0
100
AcDbBlockBegin
  2
CLUMP1
 70
     0
 10
0.0
 20
0.0
 30
0.0
  3
CLUMP1
  1

  0
MTEXT
  5
28C
330
289
100
AcDbEntity
  8
ﾚｲﾔｰ1
370
     5
100
AcDbMText
 10
703.0271129157
 20
-305.6345209642
 30
0.0
 40
5.9972220421
 41
18.4230131025
 71
     1
 72
     1
  1
\W0.8;\fＭＳ ゴシック;\W1.0;ＨＬ
 73
     1
 44
1.0
1001
ACAD
1000
MTEXTBEGIN
1070
    73
1070
     1
1070
    44
1040
1.0
1070
    74
1070
     0
1000
MTEXTEND
  0
LINE
  5
28D
330
289
100
AcDbEntity
  8
ﾚｲﾔｰ1
370
     5
100
AcDbLine
 10
681.1041536209
 20
-316.5888080044
 30
0.0
 11
741.1041536208998
 21
-316.5888080044
 31
0.0
  0
LINE
  5
28E
330
289
100
AcDbEntity
  8
ﾚｲﾔｰ1
370
     5
100
AcDbLine
 10
683.1041536208998
 20
-318.5888080044
 30
0.0
 11
743.1041536209
 21
-318.5888080044
 31
0.0
  0
LINE
  5
28F
330
289
100
AcDbEntity
  8
ﾚｲﾔｰ1
370
     5
100
AcDbLine
 10
685.1041536209
 20
-320.5888080044
 30
0.0
 11
745.1041536208999
 21
-320.5888080044
 31
0.0
  0
LINE
  5
290
330
289
100
AcDbEntity
  8
ﾚｲﾔｰ1
370
     5
100
AcDbLine
 10
687.1041536208998
 20
-322.5888080044
 30
0.0
 11
747.1041536209
 21
-322.5888080044
 31
0.0
  0
LINE
  5
291
330
289
100
AcDbEntity
  8
ﾚｲﾔｰ1
370
     5
100
AcDbLine
 10
689.1041536209
 20
-324.5888080044
 30
0.0
 11
749.1041536208999
 21
-324.5888080044
 31
0.0
  0
LINE
  5
292
330
289
100
AcDbEntity
  8
ﾚｲﾔｰ1
370
     5
100
AcDbLine
 10
691.1041536208998
 20
-326.5888080044
 30
0.0
 11
751.1041536208998
 21
-326.5888080044
 31
0.0
  0
LINE
  5
293
330
289
100
AcDbEntity
  8
ﾚｲﾔｰ1
370
     5
100
AcDbLine
 10
693.1041536209
 20
-328.5888080044
 30
0.0
 11
753.1041536208999
 21
-328.5888080044
 31
0.0
  0
LINE
  5
294
330
289
100
AcDbEntity
  8
ﾚｲﾔｰ1
370
     5
100
AcDbLine
 10
679.1041536208997
 20
-314.5888080044
 30
0.0
 11
739.1041536209
 21
-314.5888080044
 31
0.0
  0
ENDBLK
  5
295
330
289
100
AcDbEntity
  8
0
100
AcDbBlockEnd
  0
ENDSEC
  0
SECTION
  2
ENTITIES
  0
MTEXT
  5
654
330
A
100
AcDbEntity
  8
____1
  6
Continuous
 62
     7
100
AcDbMText
 10
1009.349091957148
 20
279.3172816960626
 30
0.0
 40
5.644444274902342
 41
46.0
 71
     2
 72
     1
  1
\W0.8;\fＭＳ ゴシック;\W1.0;SUS304 HL
  7
STYLE1
 73
     1
 44
1.0
1001
ACAD
1000
MTEXTBEGIN
1070
    73
1070
     1
1070
    44
1040
1.0
1070
    74
1070
     0
1000
MTEXTEND
  0
MTEXT
  5
655
330
A
100
AcDbEntity
  8
____1
  6
Continuous
 62
     7
100
AcDbMText
 10
1049.349091957148
 20
279.3172816960626
 30
0.0
 40
5.644444274902342
 41
46.0
 71
     2
 72
     1
  1
\W0.8;\fＭＳ ゴシック;\W1.0;5.0t
  7
STYLE1
 73
     1
 44
1.0
1001
ACAD
1000
MTEXTBEGIN
1070
    73
1070
     1
1070
    44
1040
1.0
1070
    74
1070
     0
1000
MTEXTEND
  0
MTEXT
  5
656
330
A
100
AcDbEntity
  8
____1
  6
Continuous
 62
     0
100
AcDbMText
 10
949.3490919571483
 20
303.6904709222491
 30
0.0
 40
6.773332977294923
 41
121.977129013
 71
     1
 72
     1
  1
\W0.8;\fＭＳ ゴシック;\W1.0;表面処理：電解研磨仕上げ
  7
STYLE1
 73
     1
 44
1.0
1001
ACAD
1000
MTEXTBEGIN
1070
    73
1070
     1
1070
    44
1040
1.0
1070
    74
1070
     0
1000
MTEXTEND
  0
LINE
  5
657
330
A
100
AcDbEntity
  8
____1
  6
Continuous
 62
     0
100
AcDbLine
 10
1042.936508229734
 20
237.0309545376528
 30
0.0
 11
1042.936508229734
 21
236.0709545376528
 31
0.0
  0
LINE
  5
658
330
A
100
AcDbEntity
  8
____1
  6
Continuous
 62
     0
100
AcDbLine
 10
1090.702438550802
 20
229.3509545376528
 30
0.0
 11
1085.326438550802
 21
229.3509545376528
 31
0.0
  0
TEXT
  5
659
330
A
100
AcDbEntity
  8
____1
  6
Continuous
 62
     7
100
AcDbText
 10
960.5296473007763
 20
273.2906613080406
 30
0.0
 40
5.644444274902342
  1
H14.5
  7
STYLE1
100
AcDbText
  0
TEXT
  5
65A
330
A
100
AcDbEntity
  8
____1
  6
Continuous
 62
     7
100
AcDbText
 10
991.4594551744029
 20
284.3049959954358
 30
0.0
 40
5.644444274902342
  1
 材　　質
  7
STYLE1
100
AcDbText
  0
TEXT
  5
65B
330
A
100
AcDbEntity
  8
____1
  6
Continuous
 62
     7
100
AcDbText
 10
1031.459455174402
 20
284.3049959954358
 30
0.0
 40
5.644444274902342
  1
 板　　厚
  7
STYLE1
100
AcDbText
  0
TEXT
  5
65C
330
A
100
AcDbEntity
  8
____1
  6
Continuous
 62
     7
100
AcDbText
 10
1042.293536613519
 20
251.2906613080406
 30
0.0
 40
5.644444274902342
  1
1：2
  7
STYLE1
100
AcDbText
  0
TEXT
  5
65D
330
A
100
AcDbEntity
  8
____1
  6
Continuous
 62
     7
100
AcDbText
 10
1031.459455174402
 20
262.3049959954358
 30
0.0
 40
5.644444274902342
  1
 尺　　度
  7
STYLE1
100
AcDbText
  0
LINE
  5
65E
330
A
100
AcDbEntity
  8
____1
  6
Continuous
 62
     7
100
AcDbLine
 10
949.3490919571483
 20
270.3508899628626
 30
0.0
 11
1069.349091957148
 21
270.3508899628626
 31
0.0
  0
LINE
  5
65F
330
A
100
AcDbEntity
  8
____1
  6
Continuous
 62
     7
100
AcDbLine
 10
1109.349091957148
 20
270.3508899628626
 30
0.0
 11
1249.349091957149
 21
270.3508899628626
 31
0.0
  0
LINE
  5
660
330
A
100
AcDbEntity
  8
____1
  6
Continuous
 62
     7
100
AcDbLine
 10
1069.349091957148
 20
281.3508899628626
 30
0.0
 11
1109.349091957148
 21
281.3508899628626
 31
0.0
  0
TEXT
  5
661
330
A
100
AcDbEntity
  8
____1
  6
Continuous
 62
     7
100
AcDbText
 10
1071.459455174402
 20
284.3049959954358
 30
0.0
 40
5.644444274902342
  1
 検　　印
  7
STYLE1
100
AcDbText
  0
LINE
  5
662
330
A
100
AcDbEntity
  8
____1
  6
Continuous
 62
     0
100
AcDbLine
 10
1077.262438550802
 20
240.4869545376528
 30
0.0
 11
1077.262438550802
 21
237.0309545376528
 31
0.0
  0
TEXT
  5
663
330
A
100
AcDbEntity
  8
____1
  6
Continuous
 62
     7
100
AcDbText
 10
973.367950507286
 20
231.5151290976252
 30
0.0
 40
10.15999984741211
  1
株式会社
  7
STYLE1
100
AcDbText
  0
LINE
  5
664
330
A
100
AcDbEntity
  8
____1
  6
Continuous
 62
     7
100
AcDbLine
 10
949.3490919571483
 20
248.3508899628626
 30
0.0
 11
1249.349091957149
 21
248.3508899628626
 31
0.0
  0
LINE
  5
665
330
A
100
AcDbEntity
  8
____1
  6
Continuous
 62
     7
100
AcDbLine
 10
1029.349091957148
 20
292.3508899628627
 30
0.0
 11
1029.349091957148
 21
270.3508899628626
 31
0.0
  0
LINE
  5
666
330
A
100
AcDbEntity
  8
____1
  6
Continuous
 62
     7
100
AcDbLine
 10
1069.349091957148
 20
292.3508899628627
 30
0.0
 11
1069.349091957148
 21
248.3508899628626
 31
0.0
  0
LINE
  5
667
330
A
100
AcDbEntity
  8
____1
  6
Continuous
 62
     7
100
AcDbLine
 10
1109.349091957148
 20
292.3508899628627
 30
0.0
 11
1109.349091957148
 21
226.3508899628626
 31
0.0
  0
LINE
  5
668
330
A
100
AcDbEntity
  8
____1
  6
Continuous
 62
     7
100
AcDbLine
 10
1249.349091957149
 20
292.3508899628627
 30
0.0
 11
949.3490919571483
 21
292.3508899628627
 31
0.0
  0
LINE
  5
669
330
A
100
AcDbEntity
  8
____1
  6
Continuous
 62
     0
100
AcDbLine
 10
1047.736508229734
 20
236.0709545376528
 30
0.0
 11
1047.736508229734
 21
237.0309545376528
 31
0.0
  0
ARC
  5
66A
330
A
100
AcDbEntity
  8
____1
  6
Continuous
 62
     0
100
AcDbCircle
 10
1040.056508229734
 20
236.0709545376528
 30
0.0
 40
2.879999999999999
100
AcDbArc
 50
270.0
 51
0.0
  0
LINE
  5
66B
330
A
100
AcDbEntity
  8
____1
  6
Continuous
 62
     0
100
AcDbLine
 10
1077.262438550802
 20
232.0389545376528
 30
0.0
 11
1084.537958550802
 21
232.0389545376528
 31
0.0
  0
LINE
  5
66C
330
A
100
AcDbEntity
  8
____1
  6
Continuous
 62
     0
100
AcDbLine
 10
1034.296508229734
 20
230.3109545376528
 30
0.0
 11
1041.976508229734
 21
230.3109545376528
 31
0.0
  0
ARC
  5
66D
330
A
100
AcDbEntity
  8
____1
  6
Continuous
 62
     0
100
AcDbCircle
 10
1060.524871866097
 20
240.8709545376528
 30
0.0
 40
10.56
100
AcDbArc
 50
322.4876119796974
 51
0.0
  0
LINE
  5
66E
330
A
100
AcDbEntity
  8
____1
  6
Continuous
 62
     0
100
AcDbLine
 10
1088.934411827273
 20
235.4949545376527
 30
0.0
 11
1094.542438550801
 21
235.4949545376527
 31
0.0
  0
ARC
  5
66F
330
A
100
AcDbEntity
  8
____1
  6
Continuous
 62
     0
100
AcDbCircle
 10
1041.976508229734
 20
236.0709545376528
 30
0.0
 40
5.759999999999998
100
AcDbArc
 50
270.0
 51
0.0
  0
LINE
  5
670
330
A
100
AcDbEntity
  8
____1
  6
Continuous
 62
     5
100
AcDbLine
 10
1249.349091957149
 20
226.3508899628626
 30
0.0
 11
1249.349091957149
 21
292.3508899628627
 31
0.0
  0
LINE
  5
671
330
A
100
AcDbEntity
  8
____1
  6
Continuous
 62
     0
100
AcDbLine
 10
1055.724871866097
 20
243.7509545376528
 30
0.0
 11
1055.724871866097
 21
240.2949545376527
 31
0.0
  0
LINE
  5
672
330
A
100
AcDbEntity
  8
____1
  6
Continuous
 62
     0
100
AcDbLine
 10
1050.616508229734
 20
243.7509545376528
 30
0.0
 11
1042.936508229734
 21
243.7509545376528
 31
0.0
  0
LINE
  5
673
330
A
100
AcDbEntity
  8
____1
  6
Continuous
 62
     0
100
AcDbLine
 10
1050.616508229734
 20
239.9109545376528
 30
0.0
 11
1050.616508229734
 21
237.0309545376528
 31
0.0
  0
LINE
  5
674
330
A
100
AcDbEntity
  8
____1
  6
Continuous
 62
     0
100
AcDbLine
 10
1032.086388911552
 20
239.9109545376528
 30
0.0
 11
1032.086388911552
 21
237.0309545376528
 31
0.0
  0
LINE
  5
675
330
A
100
AcDbEntity
  8
____1
  6
Continuous
 62
     0
100
AcDbLine
 10
1055.724871866097
 20
238.6740511105244
 30
0.0
 11
1055.724871866097
 21
239.2925028240886
 31
0.0
  0
LINE
  5
676
330
A
100
AcDbEntity
  8
____1
  6
Continuous
 62
     0
100
AcDbLine
 10
1063.404871866097
 20
239.2925028240886
 30
0.0
 11
1062.318755850195
 21
238.2063868081861
 31
0.0
  0
ARC
  5
677
330
A
100
AcDbEntity
  8
____1
  6
Continuous
 62
     0
100
AcDbCircle
 10
1058.028871866097
 20
240.4869545376528
 30
0.0
 40
7.29599999999998
100
AcDbArc
 50
270.0
 51
298.0859048152069
  0
LINE
  5
678
330
A
100
AcDbEntity
  8
____1
  6
Continuous
 62
     0
100
AcDbLine
 10
1055.724871866097
 20
239.2925028240886
 30
0.0
 11
1063.404871866097
 21
239.2925028240886
 31
0.0
  0
LINE
  5
679
330
A
100
AcDbEntity
  8
____1
  6
Continuous
 62
     0
100
AcDbLine
 10
1064.434591850136
 20
236.9943383998416
 30
0.0
 11
1063.972647902007
 21
236.4841207475781
 31
0.0
  0
LINE
  5
67A
330
A
100
AcDbEntity
  8
____1
  6
Continuous
 62
     5
100
AcDbLine
 10
949.3490919571483
 20
226.3508899628626
 30
0.0
 11
1249.349091957149
 21
226.3508899628626
 31
0.0
  0
LINE
  5
67B
330
A
100
AcDbEntity
  8
____1
  6
Continuous
 62
     0
100
AcDbLine
 10
1042.936508229734
 20
243.7509545376528
 30
0.0
 11
1042.936508229734
 21
239.9109545376528
 31
0.0
  0
LINE
  5
67C
330
A
100
AcDbEntity
  8
____1
  6
Continuous
 62
     0
100
AcDbLine
 10
1055.724871866097
 20
230.3109545376528
 30
0.0
 11
1060.524871866097
 21
230.3109545376528
 31
0.0
  0
LINE
  5
67D
330
A
100
AcDbEntity
  8
____1
  6
Continuous
 62
     0
100
AcDbLine
 10
1088.492405146391
 20
237.0309545376528
 30
0.0
 11
1094.542438550801
 21
237.0309545376528
 31
0.0
  0
LINE
  5
67E
330
A
100
AcDbEntity
  8
____1
  6
Continuous
 62
     0
100
AcDbLine
 10
1071.084871866097
 20
240.8709545376528
 30
0.0
 11
1073.004871866097
 21
243.7509545376528
 31
0.0
  0
LINE
  5
67F
330
A
100
AcDbEntity
  8
____1
  6
Continuous
 62
     0
100
AcDbLine
 10
1068.901293022105
 20
234.4406226164236
 30
0.0
 11
1068.559337067304
 21
234.1058165795797
 31
0.0
  0
LINE
  5
680
330
A
100
AcDbEntity
  8
____1
  6
Continuous
 62
     0
100
AcDbLine
 10
1039.096508229734
 20
239.9109545376528
 30
0.0
 11
1039.096508229734
 21
240.8709545376528
 31
0.0
  0
LINE
  5
681
330
A
100
AcDbEntity
  8
____1
  6
Continuous
 62
     0
100
AcDbLine
 10
1083.524198550802
 20
235.4949545376527
 30
0.0
 11
1083.073638550802
 21
237.0309545376528
 31
0.0
  0
LINE
  5
682
330
A
100
AcDbEntity
  8
____1
  6
Continuous
 62
     0
100
AcDbLine
 10
1047.736508229734
 20
240.8709545376528
 30
0.0
 11
1050.616508229734
 21
243.7509545376528
 31
0.0
  0
LINE
  5
683
330
A
100
AcDbEntity
  8
____1
  6
Continuous
 62
     0
100
AcDbLine
 10
1034.296508229734
 20
234.1509545376528
 30
0.0
 11
1039.096508229734
 21
234.1509545376528
 31
0.0
  0
TEXT
  5
684
330
A
100
AcDbEntity
  8
____1
  6
Continuous
 62
     7
100
AcDbText
 10
1140.038099460545
 20
256.3231130652062
 30
0.0
 40
6.773332977294923
  1
カウンターブラケット
  7
STYLE1
100
AcDbText
  0
TEXT
  5
685
330
A
100
AcDbEntity
  8
____1
  6
Continuous
 62
     0
100
AcDbText
 10
1066.919828399624
 20
304.5778130064525
 30
0.0
 40
6.773332977294923
  1
取付ビス：壁側　　SUS 皿ﾀｯﾋﾟﾝﾈｼﾞ 5x45
  7
STYLE1
100
AcDbText
  0
TEXT
  5
686
330
A
100
AcDbEntity
  8
____1
  6
Continuous
 62
     0
100
AcDbText
 10
1066.919828399624
 20
296.1111467848338
 30
0.0
 40
6.773332977294923
  1
          天板側　SUS 皿ﾀｯﾋﾟﾝﾈｼﾞ 5x16
  7
STYLE1
100
AcDbText
  0
LINE
  5
687
330
A
100
AcDbEntity
  8
____1
  6
Continuous
 62
     7
100
AcDbLine
 10
949.3490919571483
 20
292.3508899628627
 30
0.0
 11
949.3490919571483
 21
226.3508899628626
 31
0.0
  0
LINE
  5
688
330
A
100
AcDbEntity
  8
____1
  6
Continuous
 62
     7
100
AcDbLine
 10
1029.349091957148
 20
270.3508899628626
 30
0.0
 11
1029.349091957148
 21
248.3508899628626
 31
0.0
  0
LINE
  5
689
330
A
100
AcDbEntity
  8
____1
  6
Continuous
 62
     0
100
AcDbLine
 10
1087.497890114407
 20
240.4869545376528
 30
0.0
 11
1094.542438550801
 21
240.4869545376528
 31
0.0
  0
LINE
  5
68A
330
A
100
AcDbEntity
  8
____1
  6
Continuous
 62
     0
100
AcDbLine
 10
1082.059878550802
 20
240.4869545376528
 30
0.0
 11
1081.102438550802
 21
243.7509545376528
 31
0.0
  0
LINE
  5
68B
330
A
100
AcDbEntity
  8
____1
  6
Continuous
 62
     0
100
AcDbLine
 10
1089.928926859258
 20
232.0389545376528
 30
0.0
 11
1094.542438550801
 21
232.0389545376528
 31
0.0
  0
LINE
  5
68C
330
A
100
AcDbEntity
  8
____1
  6
Continuous
 62
     0
100
AcDbLine
 10
1034.296508229734
 20
243.7509545376528
 30
0.0
 11
1034.296508229734
 21
239.9109545376528
 31
0.0
  0
LINE
  5
68D
330
A
100
AcDbEntity
  8
____1
  6
Continuous
 62
     0
100
AcDbLine
 10
1039.096508229734
 20
240.8709545376528
 30
0.0
 11
1041.976508229734
 21
243.7509545376528
 31
0.0
  0
LINE
  5
68E
330
A
100
AcDbEntity
  8
____1
  6
Continuous
 62
     0
100
AcDbLine
 10
1041.976508229734
 20
243.7509545376528
 30
0.0
 11
1034.296508229734
 21
243.7509545376528
 31
0.0
  0
LINE
  5
68F
330
A
100
AcDbEntity
  8
____1
  6
Continuous
 62
     0
100
AcDbLine
 10
1042.936508229734
 20
239.9109545376528
 30
0.0
 11
1039.096508229734
 21
239.9109545376528
 31
0.0
  0
LINE
  5
690
330
A
100
AcDbEntity
  8
____1
  6
Continuous
 62
     0
100
AcDbLine
 10
1039.096508229734
 20
234.1509545376528
 30
0.0
 11
1039.096508229734
 21
237.0309545376528
 31
0.0
  0
LINE
  5
691
330
A
100
AcDbEntity
  8
____1
  6
Continuous
 62
     0
100
AcDbLine
 10
1077.262438550802
 20
235.4949545376527
 30
0.0
 11
1077.262438550802
 21
232.0389545376528
 31
0.0
  0
LINE
  5
692
330
A
100
AcDbEntity
  8
____1
  6
Continuous
 62
     0
100
AcDbLine
 10
1077.262438550802
 20
237.0309545376528
 30
0.0
 11
1083.073638550802
 21
237.0309545376528
 31
0.0
  0
LINE
  5
693
330
A
100
AcDbEntity
  8
____1
  6
Continuous
 62
     0
100
AcDbLine
 10
1094.542438550801
 20
240.4869545376528
 30
0.0
 11
1094.542438550801
 21
237.0309545376528
 31
0.0
  0
LINE
  5
694
330
A
100
AcDbEntity
  8
____1
  6
Continuous
 62
     0
100
AcDbLine
 10
1055.724871866097
 20
240.2949545376527
 30
0.0
 11
1065.324871866097
 21
240.2949545376527
 31
0.0
  0
LINE
  5
695
330
A
100
AcDbEntity
  8
____1
  6
Continuous
 62
     0
100
AcDbLine
 10
1040.056508229734
 20
233.1909545376528
 30
0.0
 11
1034.296508229734
 21
233.1909545376528
 31
0.0
  0
LINE
  5
696
330
A
100
AcDbEntity
  8
____1
  6
Continuous
 62
     0
100
AcDbLine
 10
1085.326438550802
 20
229.3509545376528
 30
0.0
 11
1084.537958550802
 21
232.0389545376528
 31
0.0
  0
LINE
  5
697
330
A
100
AcDbEntity
  8
____1
  6
Continuous
 62
     0
100
AcDbLine
 10
1088.934411827273
 20
235.4949545376527
 30
0.0
 11
1088.492405146391
 21
237.0309545376528
 31
0.0
  0
LINE
  5
698
330
A
100
AcDbEntity
  8
____1
  6
Continuous
 62
     5
100
AcDbLine
 10
1249.349091957149
 20
292.3508899628627
 30
0.0
 11
1249.349091957149
 21
786.3508899628625
 31
0.0
  0
LINE
  5
699
330
A
100
AcDbEntity
  8
____1
  6
Continuous
 62
     5
100
AcDbLine
 10
1249.349091957149
 20
786.3508899628625
 30
0.0
 11
449.3490919571486
 21
786.3508899628625
 31
0.0
  0
LINE
  5
69A
330
A
100
AcDbEntity
  8
____1
  6
Continuous
 62
     5
100
AcDbLine
 10
949.3490919571483
 20
226.3508899628626
 30
0.0
 11
449.3490919571486
 21
226.3508899628626
 31
0.0
  0
LINE
  5
69B
330
A
100
AcDbEntity
  8
____1
  6
Continuous
 62
     0
100
AcDbLine
 10
1077.262438550802
 20
235.4949545376527
 30
0.0
 11
1083.524198550802
 21
235.4949545376527
 31
0.0
  0
LINE
  5
69C
330
A
100
AcDbEntity
  8
____1
  6
Continuous
 62
     0
100
AcDbLine
 10
1032.086388911552
 20
237.0309545376528
 30
0.0
 11
1034.006388911552
 21
237.0309545376528
 31
0.0
  0
LINE
  5
69D
330
A
100
AcDbEntity
  8
____1
  6
Continuous
 62
     0
100
AcDbLine
 10
1090.702438550802
 20
229.3509545376528
 30
0.0
 11
1089.928926859258
 21
232.0389545376528
 31
0.0
  0
LINE
  5
69E
330
A
100
AcDbEntity
  8
____1
  6
Continuous
 62
     0
100
AcDbLine
 10
1039.096508229734
 20
237.0309545376528
 30
0.0
 11
1042.936508229734
 21
237.0309545376528
 31
0.0
  0
LINE
  5
69F
330
A
100
AcDbEntity
  8
____1
  6
Continuous
 62
     0
100
AcDbLine
 10
1055.724871866097
 20
230.3109545376528
 30
0.0
 11
1055.724871866097
 21
233.1909545376528
 31
0.0
  0
LINE
  5
6A0
330
A
100
AcDbEntity
  8
____1
  6
Continuous
 62
     0
100
AcDbLine
 10
1034.296508229734
 20
233.1909545376528
 30
0.0
 11
1034.296508229734
 21
230.3109545376528
 31
0.0
  0
LINE
  5
6A1
330
A
100
AcDbEntity
  8
____1
  6
Continuous
 62
     0
100
AcDbLine
 10
1034.296508229734
 20
237.0309545376528
 30
0.0
 11
1034.006388911552
 21
237.0309545376528
 31
0.0
  0
LINE
  5
6A2
330
A
100
AcDbEntity
  8
____1
  6
Continuous
 62
     0
100
AcDbLine
 10
1073.004871866097
 20
233.1909545376528
 30
0.0
 11
1073.004871866097
 21
230.3109545376528
 31
0.0
  0
LINE
  5
6A3
330
A
100
AcDbEntity
  8
____1
  6
Continuous
 62
     0
100
AcDbLine
 10
1094.542438550801
 20
235.4949545376527
 30
0.0
 11
1094.542438550801
 21
232.0389545376528
 31
0.0
  0
LINE
  5
6A4
330
A
100
AcDbEntity
  8
____1
  6
Continuous
 62
     0
100
AcDbLine
 10
1034.296508229734
 20
239.9109545376528
 30
0.0
 11
1032.086388911552
 21
239.9109545376528
 31
0.0
  0
LINE
  5
6A5
330
A
100
AcDbEntity
  8
____1
  6
Continuous
 62
     0
100
AcDbLine
 10
1081.102438550802
 20
243.7509545376528
 30
0.0
 11
1088.782438550802
 21
243.7509545376528
 31
0.0
  0
LINE
  5
6A6
330
A
100
AcDbEntity
  8
____1
  6
Continuous
 62
     0
100
AcDbLine
 10
1055.724871866097
 20
233.1909545376528
 30
0.0
 11
1058.028871866097
 21
233.1909545376528
 31
0.0
  0
LINE
  5
6A7
330
A
100
AcDbEntity
  8
____1
  6
Continuous
 62
     0
100
AcDbLine
 10
1055.724871866097
 20
233.1909545376528
 30
0.0
 11
1055.724871866097
 21
230.3109545376528
 31
0.0
  0
LINE
  5
6A8
330
A
100
AcDbEntity
  8
____1
  6
Continuous
 62
     0
100
AcDbLine
 10
1071.084871866097
 20
240.8709545376528
 30
0.0
 11
1073.004871866097
 21
243.7509545376528
 31
0.0
  0
POLYLINE
  5
6A9
330
A
100
AcDbEntity
  8
____1
  6
Continuous
 62
     0
100
AcDb3dPolyline
 66
     1
 10
0.0
 20
0.0
 30
0.0
 70
     8
  0
VERTEX
  5
6AA
330
6A9
100
AcDbEntity
  8
____1
 62
     0
100
AcDbVertex
100
AcDb3dPolylineVertex
 10
1066.20574251077
 20
231.9691957946572
 30
0.0
 70
    32
  0
VERTEX
  5
6AB
330
6A9
100
AcDbEntity
  8
____1
 62
     0
100
AcDbVertex
100
AcDb3dPolylineVertex
 10
1067.866479230154
 20
231.4824380629009
 30
0.0
 70
    32
  0
VERTEX
  5
6AC
330
6A9
100
AcDbEntity
  8
____1
 62
     0
100
AcDbVertex
100
AcDb3dPolylineVertex
 10
1069.560683623351
 20
231.0575638318632
 30
0.0
 70
    32
  0
VERTEX
  5
6AD
330
6A9
100
AcDbEntity
  8
____1
 62
     0
100
AcDbVertex
100
AcDb3dPolylineVertex
 10
1073.004871866097
 20
230.3109545376528
 30
0.0
 70
    32
  0
SEQEND
  5
6AE
330
6A9
100
AcDbEntity
  8
____1
 62
     0
  0
POLYLINE
  5
6AF
330
A
100
AcDbEntity
  8
____1
  6
Continuous
 62
     0
100
AcDb3dPolyline
 66
     1
 10
0.0
 20
0.0
 30
0.0
 70
     8
  0
VERTEX
  5
6B0
330
6AF
100
AcDbEntity
  8
____1
 62
     0
100
AcDbVertex
100
AcDb3dPolylineVertex
 10
1062.318755850195
 20
238.2063868081861
 30
0.0
 70
    32
  0
VERTEX
  5
6B1
330
6AF
100
AcDbEntity
  8
____1
 62
     0
100
AcDbVertex
100
AcDb3dPolylineVertex
 10
1063.12893679967
 20
237.318263045401
 30
0.0
 70
    32
  0
VERTEX
  5
6B2
330
6AF
100
AcDbEntity
  8
____1
 62
     0
100
AcDbVertex
100
AcDb3dPolylineVertex
 10
1063.972647902007
 20
236.484120747578
 30
0.0
 70
    32
  0
SEQEND
  5
6B3
330
6AF
100
AcDbEntity
  8
____1
 62
     0
  0
POLYLINE
  5
6B4
330
A
100
AcDbEntity
  8
____1
  6
Continuous
 62
     0
100
AcDb3dPolyline
 66
     1
 10
0.0
 20
0.0
 30
0.0
 70
     8
  0
VERTEX
  5
6B5
330
6B4
100
AcDbEntity
  8
____1
 62
     0
100
AcDbVertex
100
AcDb3dPolylineVertex
 10
1068.559337067305
 20
234.1058165795797
 30
0.0
 70
    32
  0
VERTEX
  5
6B6
330
6B4
100
AcDbEntity
  8
____1
 62
     0
100
AcDbVertex
100
AcDb3dPolylineVertex
 10
1069.640457158661
 20
233.8283785380677
 30
0.0
 70
    32
  0
VERTEX
  5
6B7
330
6B4
100
AcDbEntity
  8
____1
 62
     0
100
AcDbVertex
100
AcDb3dPolylineVertex
 10
1070.747517485739
 20
233.5927026660104
 30
0.0
 70
    32
  0
VERTEX
  5
6B8
330
6B4
100
AcDbEntity
  8
____1
 62
     0
100
AcDbVertex
100
AcDb3dPolylineVertex
 10
1073.004871866097
 20
233.1909545376528
 30
0.0
 70
    32
  0
SEQEND
  5
6B9
330
6B4
100
AcDbEntity
  8
____1
 62
     0
  0
LINE
  5
6BA
330
A
100
AcDbEntity
  8
____1
  6
Continuous
 62
     0
100
AcDbLine
 10
1073.004871866097
 20
243.7509545376528
 30
0.0
 11
1055.724871866097
 21
243.7509545376528
 31
0.0
  0
LINE
  5
6BB
330
A
100
AcDbEntity
  8
____1
  6
Continuous
 62
     0
100
AcDbLine
 10
1087.497890114407
 20
240.4869545376528
 30
0.0
 11
1087.216813153976
 21
241.4637140073497
 31
0.0
  0
LINE
  5
6BC
330
A
100
AcDbEntity
  8
____1
  6
Continuous
 62
     7
100
AcDbLine
 10
989.3490919571483
 20
292.3508899628627
 30
0.0
 11
989.3490919571483
 21
270.3508899628626
 31
0.0
  0
LINE
  5
6BD
330
A
100
AcDbEntity
  8
____1
  6
Continuous
 62
     7
100
AcDbLine
 10
1034.349091957148
 20
259.3508899628626
 30
0.0
 11
1064.349091957148
 21
259.3508899628626
 31
0.0
  0
LINE
  5
6BE
330
A
100
AcDbEntity
  8
____1
  6
Continuous
 62
     7
100
AcDbLine
 10
1034.349091957148
 20
281.3508899628626
 30
0.0
 11
1064.349091957148
 21
281.3508899628626
 31
0.0
  0
LINE
  5
6BF
330
A
100
AcDbEntity
  8
____1
  6
Continuous
 62
     7
100
AcDbLine
 10
994.3490919571488
 20
281.3508899628626
 30
0.0
 11
1024.349091957148
 21
281.3508899628626
 31
0.0
  0
LINE
  5
6C0
330
A
100
AcDbEntity
  8
____1
  6
Continuous
 62
     7
100
AcDbLine
 10
954.3490919571487
 20
281.3508899628626
 30
0.0
 11
984.3490919571491
 21
281.3508899628626
 31
0.0
  0
LINE
  5
6C1
330
A
100
AcDbEntity
  8
____1
  6
Continuous
 62
     0
100
AcDbLine
 10
1034.296508229734
 20
237.0309545376528
 30
0.0
 11
1034.296508229734
 21
234.1509545376528
 31
0.0
  0
LINE
  5
6C2
330
A
100
AcDbEntity
  8
____1
  6
Continuous
 62
     0
100
AcDbLine
 10
1087.216813153976
 20
241.4637140073497
 30
0.0
 11
1088.782438550802
 21
243.7509545376528
 31
0.0
  0
LINE
  5
6C3
330
A
100
AcDbEntity
  8
____1
  6
Continuous
 62
     0
100
AcDbLine
 10
1077.262438550802
 20
240.4869545376528
 30
0.0
 11
1082.059878550802
 21
240.4869545376528
 31
0.0
  0
LINE
  5
6C4
330
A
100
AcDbEntity
  8
____1
  6
Continuous
 62
     0
100
AcDbLine
 10
1047.736508229734
 20
239.9109545376528
 30
0.0
 11
1047.736508229734
 21
240.8709545376528
 31
0.0
  0
LINE
  5
6C5
330
A
100
AcDbEntity
  8
____1
  6
Continuous
 62
     0
100
AcDbLine
 10
1050.616508229734
 20
239.9109545376528
 30
0.0
 11
1047.736508229734
 21
239.9109545376528
 31
0.0
  0
ARC
  5
6C6
330
A
100
AcDbEntity
  8
____1
  6
Continuous
 62
     0
100
AcDbCircle
 10
1060.524871866097
 20
240.8709545376528
 30
0.0
 40
10.56000000000012
100
AcDbArc
 50
270.0
 51
302.5449588540466
  0
LINE
  5
6C7
330
A
100
AcDbEntity
  8
____1
  6
Continuous
 62
     0
100
AcDbLine
 10
1047.736508229734
 20
237.0309545376528
 30
0.0
 11
1050.616508229734
 21
237.0309545376528
 31
0.0
  0
ARC
  5
6C8
330
A
100
AcDbEntity
  8
____1
  6
Continuous
 62
     0
100
AcDbCircle
 10
1058.028871866097
 20
240.4869545376528
 30
0.0
 40
7.296000000000057
100
AcDbArc
 50
331.3992813832578
 51
358.4920422457636
  0
LINE
  5
6C9
330
A
100
AcDbEntity
  8
____1
  6
Continuous
 62
     5
100
AcDbLine
 10
449.3490919571486
 20
226.3508899628626
 30
0.0
 11
449.3490919571486
 21
786.3508899628625
 31
0.0
  0
TEXT
  5
6CA
330
A
100
AcDbEntity
  8
____1
  6
Continuous
 62
     7
100
AcDbText
 10
1111.582435630788
 20
240.303843842277
 30
0.0
 40
5.644444274902342
  1
図番
  7
STYLE1
100
AcDbText
  0
TEXT
  5
6CB
330
A
100
AcDbEntity
  8
____1
  6
Continuous
 62
     7
100
AcDbText
 10
1111.582435630788
 20
262.3038438422771
 30
0.0
 40
5.644444274902342
  1
品名
  7
STYLE1
100
AcDbText
  0
TEXT
  5
6CC
330
A
100
AcDbEntity
  8
____1
  6
Continuous
 62
     7
100
AcDbText
 10
1111.582435630788
 20
284.303843842277
 30
0.0
 40
5.644444274902342
  1
型番
  7
STYLE1
100
AcDbText
  0
TEXT
  5
6CD
330
A
100
AcDbEntity
  8
____1
  6
Continuous
 62
     7
100
AcDbText
 10
951.4594551744028
 20
284.3049959954358
 30
0.0
 40
5.644444274902342
  1
 日　　付
  7
STYLE1
100
AcDbText
  0
TEXT
  5
6CE
330
A
100
AcDbEntity
  8
____1
  6
Continuous
 62
     7
100
AcDbText
 10
949.3490919571483
 20
251.3049959954358
 30
0.0
 40
5.644444274902342
  1
 製図　　 岸本
  7
STYLE1
100
AcDbText
  0
TEXT
  5
6CF
330
A
100
AcDbEntity
  8
____1
  6
Continuous
 62
     7
100
AcDbText
 10
949.3490919571483
 20
262.3049959954358
 30
0.0
 40
5.644444274902342
  1
 設計　　 岸本
  7
STYLE1
100
AcDbText
  0
LINE
  5
6D0
330
A
100
AcDbEntity
  8
____1
  6
Continuous
 62
     7
100
AcDbLine
 10
954.3490919571487
 20
259.3508899628626
 30
0.0
 11
1024.349091957148
 21
259.3508899628626
 31
0.0
  0
POLYLINE
  5
6D1
330
A
100
AcDbEntity
  8
____1
  6
Continuous
 62
     0
100
AcDb3dPolyline
 66
     1
 10
0.0
 20
0.0
 30
0.0
 70
     8
  0
VERTEX
  5
6D2
330
6D1
100
AcDbEntity
  8
____1
 62
     0
100
AcDbVertex
100
AcDb3dPolylineVertex
 10
1055.724871866097
 20
238.6740511105244
 30
0.0
 70
    32
  0
VERTEX
  5
6D3
330
6D1
100
AcDbEntity
  8
____1
 62
     0
100
AcDbVertex
100
AcDb3dPolylineVertex
 10
1057.103258694368
 20
237.4138850872196
 30
0.0
 70
    32
  0
VERTEX
  5
6D4
330
6D1
100
AcDbEntity
  8
____1
 62
     0
100
AcDbVertex
100
AcDb3dPolylineVertex
 10
1058.504182719179
 20
236.1953915334757
 30
0.0
 70
    32
  0
VERTEX
  5
6D5
330
6D1
100
AcDbEntity
  8
____1
 62
     0
100
AcDbVertex
100
AcDb3dPolylineVertex
 10
1059.950181137066
 20
235.0602429188539
 30
0.0
 70
    32
  0
VERTEX
  5
6D6
330
6D1
100
AcDbEntity
  8
____1
 62
     0
100
AcDbVertex
100
AcDb3dPolylineVertex
 10
1061.46379114457
 20
234.050111712915
 30
0.0
 70
    32
  0
VERTEX
  5
6D7
330
6D1
100
AcDbEntity
  8
____1
 62
     0
100
AcDbVertex
100
AcDb3dPolylineVertex
 10
1061.463791148487
 20
234.0501117105629
 30
0.0
 70
    32
  0
SEQEND
  5
6D8
330
6D1
100
AcDbEntity
  8
____1
 62
     0
  0
TEXT
  5
6D9
330
A
100
AcDbEntity
  8
____1
  6
Continuous
 62
     0
100
AcDbText
 10
1098.765758941707
 20
778.8004779027368
 30
0.0
 40
4.938888740539549
  1
改訂日
  7
STYLE1
100
AcDbText
  0
LINE
  5
6DA
330
A
100
AcDbEntity
  8
____1
  6
Continuous
 62
     0
100
AcDbLine
 10
1069.349091957149
 20
776.3508899628625
 30
0.0
 11
1249.349091957149
 21
776.3508899628625
 31
0.0
  0
LINE
  5
6DB
330
A
100
AcDbEntity
  8
____1
  6
Continuous
 62
     0
100
AcDbLine
 10
1069.349091957149
 20
766.3508899628625
 30
0.0
 11
1249.349091957149
 21
766.3508899628625
 31
0.0
  0
LINE
  5
6DC
330
A
100
AcDbEntity
  8
____1
  6
Continuous
 62
     0
100
AcDbLine
 10
1073.830521185064
 20
777.1124734648688
 30
0.0
 11
1083.730521185064
 21
777.1124734648688
 31
0.0
  0
LINE
  5
6DD
330
A
100
AcDbEntity
  8
____1
  6
Continuous
 62
     0
100
AcDbLine
 10
1078.780521185064
 20
785.6861249623349
 30
0.0
 11
1083.730521185064
 21
777.1124734648688
 31
0.0
  0
LINE
  5
6DE
330
A
100
AcDbEntity
  8
____1
  6
Continuous
 62
     0
100
AcDbLine
 10
1078.780521185064
 20
785.6861249623349
 30
0.0
 11
1073.830521185064
 21
777.1124734648688
 31
0.0
  0
LINE
  5
6DF
330
A
100
AcDbEntity
  8
____1
  6
Continuous
 62
     0
100
AcDbLine
 10
1069.349091957149
 20
766.3508899628624
 30
0.0
 11
1069.349091957149
 21
786.3508899628625
 31
0.0
  0
LINE
  5
6E0
330
A
100
AcDbEntity
  8
____1
  6
Continuous
 62
     0
100
AcDbLine
 10
1089.349091957149
 20
766.3508899628624
 30
0.0
 11
1089.349091957149
 21
786.3508899628625
 31
0.0
  0
LINE
  5
6E1
330
A
100
AcDbEntity
  8
____1
  6
Continuous
 62
     0
100
AcDbLine
 10
1129.349091957149
 20
766.3508899628624
 30
0.0
 11
1129.349091957149
 21
786.3508899628625
 31
0.0
  0
LINE
  5
6E2
330
A
100
AcDbEntity
  8
____1
  6
Continuous
 62
     0
100
AcDbLine
 10
1129.349091957149
 20
766.3508899628624
 30
0.0
 11
1129.349091957149
 21
786.3508899628625
 31
0.0
  0
TEXT
  5
6E3
330
A
100
AcDbEntity
  8
____1
  6
Continuous
 62
     0
100
AcDbText
 10
1164.654649208126
 20
778.8004779027368
 30
0.0
 40
4.938888740539549
  1
改　訂　内　容
  7
STYLE1
100
AcDbText
  0
TEXT
  5
6E4
330
A
100
AcDbEntity
  8
____1
  6
Continuous
 62
     7
100
AcDbText
 10
1158.570163514004
 20
278.7640038320761
 30
0.0
 40
6.773332977294923
  1
ＬＳ-７３４
  7
STYLE1
100
AcDbText
  0
LINE
  5
6E5
330
A
100
AcDbEntity
  8
____1
  6
Continuous
 62
     0
100
AcDbLine
 10
1225.897526557557
 20
287.0199578777177
 30
0.0
 11
1220.947526557557
 21
278.4463063802518
 31
0.0
  0
LINE
  5
6E6
330
A
100
AcDbEntity
  8
____1
  6
Continuous
 62
     0
100
AcDbLine
 10
1225.897526557557
 20
287.0199578777177
 30
0.0
 11
1230.847526557557
 21
278.4463063802518
 31
0.0
  0
LINE
  5
6E7
330
A
100
AcDbEntity
  8
____1
  6
Continuous
 62
     0
100
AcDbLine
 10
1220.947526557557
 20
278.4463063802518
 30
0.0
 11
1230.847526557557
 21
278.4463063802518
 31
0.0
  0
TEXT
  5
6E8
330
A
100
AcDbEntity
  8
____1
  6
Continuous
 62
     0
100
AcDbText
 10
1224.434204738323
 20
279.5462550083676
 30
0.0
 40
4.682630310058592
  1
1
  7
STYLE1
100
AcDbText
  0
TEXT
  5
6E9
330
A
100
AcDbEntity
  8
____1
  6
Continuous
 62
     0
100
AcDbText
 10
1236.461440003842
 20
302.7127797926744
 30
0.0
 40
4.682630310058592
  1
1
  7
STYLE1
100
AcDbText
  0
LINE
  5
6EA
330
A
100
AcDbEntity
  8
____1
  6
Continuous
 62
     0
100
AcDbLine
 10
1232.974761823075
 20
301.6128311645587
 30
0.0
 11
1242.874761823075
 21
301.6128311645587
 31
0.0
  0
LINE
  5
6EB
330
A
100
AcDbEntity
  8
____1
  6
Continuous
 62
     0
100
AcDbLine
 10
1237.924761823075
 20
310.1864826620247
 30
0.0
 11
1242.874761823075
 21
301.6128311645587
 31
0.0
  0
LINE
  5
6EC
330
A
100
AcDbEntity
  8
____1
  6
Continuous
 62
     0
100
AcDbLine
 10
1237.924761823075
 20
310.1864826620247
 30
0.0
 11
1232.974761823075
 21
301.6128311645587
 31
0.0
  0
TEXT
  5
6ED
330
A
100
AcDbEntity
  8
____1
  6
Continuous
 62
     0
100
AcDbText
 10
1077.317199365831
 20
768.3124220929848
 30
0.0
 40
4.682630310058592
  1
1
  7
STYLE1
100
AcDbText
  0
LINE
  5
6EE
330
A
100
AcDbEntity
  8
____1
  6
Continuous
 62
     0
100
AcDbLine
 10
1073.830521185064
 20
767.2124734648689
 30
0.0
 11
1083.730521185064
 21
767.2124734648689
 31
0.0
  0
LINE
  5
6EF
330
A
100
AcDbEntity
  8
____1
  6
Continuous
 62
     0
100
AcDbLine
 10
1078.780521185064
 20
775.786124962335
 30
0.0
 11
1083.730521185064
 21
767.2124734648689
 31
0.0
  0
LINE
  5
6F0
330
A
100
AcDbEntity
  8
____1
  6
Continuous
 62
     0
100
AcDbLine
 10
1078.780521185064
 20
775.786124962335
 30
0.0
 11
1073.830521185064
 21
767.2124734648689
 31
0.0
  0
TEXT
  5
6F1
330
A
100
AcDbEntity
  8
____1
  6
Continuous
 62
     0
100
AcDbText
 10
1134.014327919954
 20
768.8713269040627
 30
0.0
 40
4.938888740539549
  1
ﾈｼﾞ仕様変更（木ﾈｼﾞ ⇒ 皿ﾀｯﾋﾟﾝﾈｼﾞ）
  7
STYLE1
100
AcDbText
  0
TEXT
  5
6F2
330
A
100
AcDbEntity
  8
____1
  6
Continuous
 62
     0
100
AcDbText
 10
1098.765758941707
 20
768.8713269040627
 30
0.0
 40
4.938888740539549
  1
H25.03
  7
STYLE1
100
AcDbText
  0
LWPOLYLINE
  5
6F3
330
A
100
AcDbEntity
  8
DEFPOINTS
100
AcDbPolyline
 90
        4
 70
     1
 43
0.0
 10
1271.344091957147
 20
801.7008899628626
 10
429.3490919571485
 20
801.7008899628626
 10
429.3490919571485
 20
206.3508899628625
 10
1271.344091957147
 20
206.3508899628625
  0
SOLID
  5
839
330
A
100
AcDbEntity
  8
寸法線
100
AcDbTrace
 10
584.0291201815008
 20
728.7486344800688
 30
0.0
 11
590.0291201815011
 21
730.2486344800691
 31
0.0
 12
590.0291201815011
 22
727.248634480069
 32
0.0
 13
588.5291201815008
 23
728.7486344800688
 33
0.0
  0
LINE
  5
83A
330
A
100
AcDbEntity
  8
寸法線
100
AcDbLine
 10
584.0291201815008
 20
728.7486344800688
 30
0.0
 11
589.0291201815008
 21
728.7486344800688
 31
0.0
  0
SOLID
  5
83B
330
A
100
AcDbEntity
  8
寸法線
100
AcDbTrace
 10
576.0291201815008
 20
728.7486344800688
 30
0.0
 11
570.029120181501
 21
727.248634480069
 31
0.0
 12
570.029120181501
 22
730.2486344800691
 32
0.0
 13
571.5291201815008
 23
728.7486344800688
 33
0.0
  0
LINE
  5
83C
330
A
100
AcDbEntity
  8
寸法線
100
AcDbLine
 10
576.0291201815008
 20
728.7486344800688
 30
0.0
 11
571.0291201815008
 21
728.7486344800688
 31
0.0
  0
LINE
  5
83D
330
A
100
AcDbEntity
  8
寸法線
100
AcDbLine
 10
576.0291201815008
 20
728.7486344800688
 30
0.0
 11
576.0291201815008
 21
728.7486344800688
 31
0.0
  0
LINE
  5
83E
330
A
100
AcDbEntity
  8
寸法線
100
AcDbLine
 10
576.0291201815008
 20
728.7486344800688
 30
0.0
 11
584.0291201815008
 21
728.7486344800688
 31
0.0
  0
LINE
  5
83F
330
A
100
AcDbEntity
  8
寸法線
100
AcDbLine
 10
584.0291201815008
 20
728.7486344800688
 30
0.0
 11
576.0291201815008
 21
728.7486344800688
 31
0.0
  0
LINE
  5
840
330
A
100
AcDbEntity
  8
寸法線
100
AcDbLine
 10
584.0291201815008
 20
728.7486344800688
 30
0.0
 11
584.0291201815008
 21
728.7486344800688
 31
0.0
  0
LINE
  5
841
330
A
100
AcDbEntity
  8
寸法線
100
AcDbLine
 10
576.0291201815008
 20
651.703209065069
 30
0.0
 11
576.0291201815008
 21
730.7486344800691
 31
0.0
  0
LINE
  5
842
330
A
100
AcDbEntity
  8
寸法線
100
AcDbLine
 10
584.0291201815008
 20
694.203209065069
 30
0.0
 11
584.0291201815008
 21
730.7486344800691
 31
0.0
  0
TEXT
  5
843
330
A
100
AcDbEntity
  8
寸法線
100
AcDbText
 10
578.265231345601
 20
730.806967781569
 30
0.0
 40
5.9972220421
  1
8
100
AcDbText
  0
SOLID
  5
844
330
A
100
AcDbEntity
  8
寸法線
100
AcDbTrace
 10
584.0291201815008
 20
742.1094399915689
 30
0.0
 11
578.029120181501
 21
740.6094399915689
 31
0.0
 12
578.029120181501
 22
743.6094399915689
 32
0.0
 13
579.5291201815008
 23
742.1094399915689
 33
0.0
  0
LINE
  5
845
330
A
100
AcDbEntity
  8
寸法線
100
AcDbLine
 10
584.0291201815008
 20
742.1094399915689
 30
0.0
 11
579.0291201815008
 21
742.1094399915689
 31
0.0
  0
SOLID
  5
846
330
A
100
AcDbEntity
  8
寸法線
100
AcDbTrace
 10
546.0291201815008
 20
742.1094399915689
 30
0.0
 11
552.0291201815012
 21
743.6094399915689
 31
0.0
 12
552.0291201815012
 22
740.6094399915689
 32
0.0
 13
550.5291201815008
 23
742.1094399915689
 33
0.0
  0
LINE
  5
847
330
A
100
AcDbEntity
  8
寸法線
100
AcDbLine
 10
546.0291201815008
 20
742.1094399915689
 30
0.0
 11
551.0291201815008
 21
742.1094399915689
 31
0.0
  0
LINE
  5
848
330
A
100
AcDbEntity
  8
寸法線
100
AcDbLine
 10
546.0291201815008
 20
742.1094399915689
 30
0.0
 11
557.9735648378009
 21
742.1094399915689
 31
0.0
  0
LINE
  5
849
330
A
100
AcDbEntity
  8
寸法線
100
AcDbLine
 10
546.0291201815008
 20
742.1094399915689
 30
0.0
 11
572.084675525101
 21
742.1094399915689
 31
0.0
  0
LINE
  5
84A
330
A
100
AcDbEntity
  8
寸法線
100
AcDbLine
 10
584.0291201815008
 20
742.1094399915689
 30
0.0
 11
557.9735648378009
 21
742.1094399915689
 31
0.0
  0
LINE
  5
84B
330
A
100
AcDbEntity
  8
寸法線
100
AcDbLine
 10
584.0291201815008
 20
742.1094399915689
 30
0.0
 11
572.084675525101
 21
742.1094399915689
 31
0.0
  0
LINE
  5
84C
330
A
100
AcDbEntity
  8
寸法線
100
AcDbLine
 10
546.0291201815008
 20
694.203209065069
 30
0.0
 11
546.0291201815008
 21
744.1094399915689
 31
0.0
  0
LINE
  5
84D
330
A
100
AcDbEntity
  8
寸法線
100
AcDbLine
 10
584.0291201815008
 20
694.203209065069
 30
0.0
 11
584.0291201815008
 21
744.1094399915689
 31
0.0
  0
TEXT
  5
84E
330
A
100
AcDbEntity
  8
寸法線
100
AcDbText
 10
561.5013425096009
 20
744.1677732930686
 30
0.0
 40
5.9972220421
  1
38
100
AcDbText
  0
SOLID
  5
84F
330
A
100
AcDbEntity
  8
寸法線
100
AcDbTrace
 10
1158.102997249748
 20
329.2816039195626
 30
0.0
 11
1152.102997249748
 21
327.7816039195625
 31
0.0
 12
1152.102997249748
 22
330.7816039195625
 32
0.0
 13
1153.602997249748
 23
329.2816039195626
 33
0.0
  0
LINE
  5
850
330
A
100
AcDbEntity
  8
寸法線
100
AcDbLine
 10
1158.102997249748
 20
329.2816039195626
 30
0.0
 11
1153.102997249748
 21
329.2816039195626
 31
0.0
  0
SOLID
  5
851
330
A
100
AcDbEntity
  8
寸法線
100
AcDbTrace
 10
1088.102997249748
 20
329.2816039195626
 30
0.0
 11
1094.102997249748
 21
330.7816039195625
 31
0.0
 12
1094.102997249748
 22
327.7816039195625
 32
0.0
 13
1092.602997249748
 23
329.2816039195626
 33
0.0
  0
LINE
  5
852
330
A
100
AcDbEntity
  8
寸法線
100
AcDbLine
 10
1088.102997249748
 20
329.2816039195626
 30
0.0
 11
1093.102997249748
 21
329.2816039195626
 31
0.0
  0
LINE
  5
853
330
A
100
AcDbEntity
  8
寸法線
100
AcDbLine
 10
1088.102997249748
 20
329.2816039195626
 30
0.0
 11
1116.047441906149
 21
329.2816039195626
 31
0.0
  0
LINE
  5
854
330
A
100
AcDbEntity
  8
寸法線
100
AcDbLine
 10
1088.102997249748
 20
329.2816039195626
 30
0.0
 11
1130.158552593448
 21
329.2816039195626
 31
0.0
  0
LINE
  5
855
330
A
100
AcDbEntity
  8
寸法線
100
AcDbLine
 10
1158.102997249748
 20
329.2816039195626
 30
0.0
 11
1116.047441906149
 21
329.2816039195626
 31
0.0
  0
LINE
  5
856
330
A
100
AcDbEntity
  8
寸法線
100
AcDbLine
 10
1158.102997249748
 20
329.2816039195626
 30
0.0
 11
1130.158552593448
 21
329.2816039195626
 31
0.0
  0
LINE
  5
857
330
A
100
AcDbEntity
  8
寸法線
100
AcDbLine
 10
1088.102997249748
 20
373.2768001445626
 30
0.0
 11
1088.102997249748
 21
327.2816039195626
 31
0.0
  0
LINE
  5
858
330
A
100
AcDbEntity
  8
寸法線
100
AcDbLine
 10
1158.102997249748
 20
350.7768001445626
 30
0.0
 11
1158.102997249748
 21
327.2816039195626
 31
0.0
  0
TEXT
  5
859
330
A
100
AcDbEntity
  8
寸法線
100
AcDbText
 10
1119.575219577948
 20
331.3399372211626
 30
0.0
 40
5.9972220421
  1
70
100
AcDbText
  0
SOLID
  5
85A
330
A
100
AcDbEntity
  8
寸法線
100
AcDbTrace
 10
1010.293634773301
 20
626.056964133469
 30
0.0
 11
1008.732320334001
 21
620.072626474069
 31
0.0
 12
1006.099845487101
 22
621.5114024054687
 32
0.0
 13
1008.135470876201
 23
622.108251863169
 33
0.0
  0
LINE
  5
85B
330
A
100
AcDbEntity
  8
寸法線
100
AcDbLine
 10
1010.293634773301
 20
626.056964133469
 30
0.0
 11
1007.895674887701
 21
621.669506055369
 31
0.0
  0
SOLID
  5
85C
330
A
100
AcDbEntity
  8
寸法線
100
AcDbTrace
 10
994.946691505401
 20
597.9772324336691
 30
0.0
 11
996.5080059447013
 21
603.9615700930689
 31
0.0
 12
999.140480791501
 22
602.522794161669
 32
0.0
 13
997.104855402401
 23
601.9259447039687
 33
0.0
  0
LINE
  5
85D
330
A
100
AcDbEntity
  8
寸法線
100
AcDbLine
 10
994.946691505401
 20
597.9772324336691
 30
0.0
 11
997.344651391001
 21
602.364690511769
 31
0.0
  0
LINE
  5
85E
330
A
100
AcDbEntity
  8
寸法線
100
AcDbLine
 10
994.946691505401
 20
597.9772324336691
 30
0.0
 11
999.435955097301
 21
606.191071175969
 31
0.0
  0
LINE
  5
85F
330
A
100
AcDbEntity
  8
寸法線
100
AcDbLine
 10
994.946691505401
 20
597.9772324336691
 30
0.0
 11
1006.203530571101
 21
618.5734524911691
 31
0.0
  0
LINE
  5
860
330
A
100
AcDbEntity
  8
寸法線
100
AcDbLine
 10
1010.293634773301
 20
626.056964133469
 30
0.0
 11
999.435955097301
 21
606.191071175969
 31
0.0
  0
LINE
  5
861
330
A
100
AcDbEntity
  8
寸法線
100
AcDbLine
 10
1010.293634773301
 20
626.056964133469
 30
0.0
 11
1006.203530571101
 21
618.5734524911691
 31
0.0
  0
LINE
  5
862
330
A
100
AcDbEntity
  8
寸法線
100
AcDbLine
 10
1002.206704344901
 20
594.0092812308689
 30
0.0
 11
993.1917082741009
 21
598.936416387869
 31
0.0
  0
LINE
  5
863
330
A
100
AcDbEntity
  8
寸法線
100
AcDbLine
 10
1017.553647612801
 20
622.089012930669
 30
0.0
 11
1008.538651542001
 21
627.0161480876692
 31
0.0
  0
TEXT
  5
864
330
A
100
AcDbEntity
  8
寸法線
100
AcDbText
 10
999.3216787515008
 20
610.2738266424687
 30
0.0
 40
5.9972220421
  1
32
 50
61.34124321040001
100
AcDbText
  0
SOLID
  5
865
330
A
100
AcDbEntity
  8
寸法線
100
AcDbTrace
 10
553.451305530201
 20
444.5621337489689
 30
0.0
 11
551.238574978501
 21
438.7868568287689
 31
0.0
 12
548.781118845701
 22
440.507586137769
 32
0.0
 13
550.870211566601
 23
440.875949549669
 33
0.0
  0
LINE
  5
866
330
A
100
AcDbEntity
  8
寸法線
100
AcDbLine
 10
553.451305530201
 20
444.5621337489689
 30
0.0
 11
534.5797136414009
 21
417.610707409069
 31
0.0
  0
TEXT
  5
867
330
A
100
AcDbEntity
  8
寸法線
100
AcDbText
 10
532.556863237301
 20
419.0271225106688
 30
0.0
 40
5.9972220421
  1
R50
 50
55.0
100
AcDbText
  0
SOLID
  5
868
330
A
100
AcDbEntity
  8
寸法線
100
AcDbTrace
 10
1202.683639949948
 20
381.7768001445626
 30
0.0
 11
1204.183639949949
 21
375.7768001445626
 31
0.0
 12
1201.183639949948
 22
375.7768001445626
 32
0.0
 13
1202.683639949948
 23
377.2768001445626
 33
0.0
  0
LINE
  5
869
330
A
100
AcDbEntity
  8
寸法線
100
AcDbLine
 10
1202.683639949948
 20
381.7768001445626
 30
0.0
 11
1202.683639949948
 21
376.7768001445626
 31
0.0
  0
SOLID
  5
86A
330
A
100
AcDbEntity
  8
寸法線
100
AcDbTrace
 10
1202.683639949948
 20
389.7768001445626
 30
0.0
 11
1201.183639949948
 21
395.7768001445626
 31
0.0
 12
1204.183639949949
 22
395.7768001445626
 32
0.0
 13
1202.683639949948
 23
394.2768001445626
 33
0.0
  0
LINE
  5
86B
330
A
100
AcDbEntity
  8
寸法線
100
AcDbLine
 10
1202.683639949948
 20
389.7768001445626
 30
0.0
 11
1202.683639949948
 21
394.7768001445626
 31
0.0
  0
LINE
  5
86C
330
A
100
AcDbEntity
  8
寸法線
100
AcDbLine
 10
1202.683639949948
 20
389.7768001445626
 30
0.0
 11
1202.683639949948
 21
389.7768001445626
 31
0.0
  0
LINE
  5
86D
330
A
100
AcDbEntity
  8
寸法線
100
AcDbLine
 10
1202.683639949948
 20
389.7768001445626
 30
0.0
 11
1202.683639949948
 21
381.7768001445626
 31
0.0
  0
LINE
  5
86E
330
A
100
AcDbEntity
  8
寸法線
100
AcDbLine
 10
1202.683639949948
 20
381.7768001445626
 30
0.0
 11
1202.683639949948
 21
389.7768001445626
 31
0.0
  0
LINE
  5
86F
330
A
100
AcDbEntity
  8
寸法線
100
AcDbLine
 10
1202.683639949948
 20
381.7768001445626
 30
0.0
 11
1202.683639949948
 21
381.7768001445626
 31
0.0
  0
LINE
  5
870
330
A
100
AcDbEntity
  8
寸法線
100
AcDbLine
 10
1159.102997249748
 20
389.7768001445626
 30
0.0
 11
1204.683639949948
 21
389.7768001445626
 31
0.0
  0
LINE
  5
871
330
A
100
AcDbEntity
  8
寸法線
100
AcDbLine
 10
1096.602997249748
 20
381.7768001445626
 30
0.0
 11
1204.683639949948
 21
381.7768001445626
 31
0.0
  0
TEXT
  5
872
330
A
100
AcDbEntity
  8
寸法線
100
AcDbText
 10
1200.625306648449
 20
383.1706194767626
 30
0.0
 40
5.9972220421
  1
8
 50
90.0
100
AcDbText
  0
LINE
  5
873
330
A
100
AcDbEntity
  8
寸法線
100
AcDbLine
 10
661.7889312670008
 20
688.203209065069
 30
0.0
 11
1119.730243026001
 21
688.203209065069
 31
0.0
  0
LINE
  5
874
330
A
100
AcDbEntity
  8
寸法線
100
AcDbLine
 10
1152.788931267001
 20
447.203209065069
 30
0.0
 11
1152.788931267001
 21
655.1445208239688
 31
0.0
  0
ARC
  5
875
330
A
100
AcDbEntity
  8
寸法線
100
AcDbCircle
 10
1152.788931267001
 20
688.203209065069
 30
0.0
 40
37.0586882411
100
AcDbArc
 50
180.0
 51
205.2206005704
  0
ARC
  5
876
330
A
100
AcDbEntity
  8
寸法線
100
AcDbCircle
 10
1152.788931267001
 20
688.203209065069
 30
0.0
 40
37.0586882411
100
AcDbArc
 50
245.0277627097
 51
270.0
  0
SOLID
  5
877
330
A
100
AcDbEntity
  8
寸法線
100
AcDbTrace
 10
1115.730243026001
 20
688.203209065069
 30
0.0
 11
1117.230243026001
 21
682.203209065069
 31
0.0
 12
1114.230243026001
 22
682.203209065069
 32
0.0
 13
1115.730243026001
 23
683.703209065069
 33
0.0
  0
SOLID
  5
878
330
A
100
AcDbEntity
  8
寸法線
100
AcDbTrace
 10
1152.788931267001
 20
651.1445208239688
 30
0.0
 11
1146.788931267001
 21
649.6445208239688
 31
0.0
 12
1146.788931267001
 22
652.6445208239691
 32
0.0
 13
1148.288931267001
 23
651.1445208239688
 33
0.0
  0
ARC
  5
879
330
A
100
AcDbEntity
  8
寸法線
100
AcDbCircle
 10
1152.788931267001
 20
688.203209065069
 30
0.0
 40
37.0586882411
100
AcDbArc
 50
256.4641489787998
 51
270.0
  0
ARC
  5
87A
330
A
100
AcDbEntity
  8
寸法線
100
AcDbCircle
 10
1152.788931267001
 20
688.203209065069
 30
0.0
 40
37.0586882411
100
AcDbArc
 50
180.0
 51
193.5358510212
  0
TEXT
  5
87B
330
A
100
AcDbEntity
  8
寸法線
100
AcDbText
 10
1125.131656449001
 20
667.925605179269
 30
0.0
 40
5.9972220421
  1
90%%d
 50
315.1241816401
100
AcDbText
  0
SOLID
  5
87C
330
A
100
AcDbEntity
  8
寸法線
100
AcDbTrace
 10
1157.788931267001
 20
728.6389679733688
 30
0.0
 11
1151.788931267001
 21
727.1389679733688
 31
0.0
 12
1151.788931267001
 22
730.1389679733691
 32
0.0
 13
1153.288931267001
 23
728.6389679733688
 33
0.0
  0
LINE
  5
87D
330
A
100
AcDbEntity
  8
寸法線
100
AcDbLine
 10
1157.788931267001
 20
728.6389679733688
 30
0.0
 11
1152.788931267001
 21
728.6389679733688
 31
0.0
  0
SOLID
  5
87E
330
A
100
AcDbEntity
  8
寸法線
100
AcDbTrace
 10
657.7889312670007
 20
728.6389679733688
 30
0.0
 11
663.7889312670011
 21
730.1389679733691
 31
0.0
 12
663.7889312670011
 22
727.1389679733688
 32
0.0
 13
662.2889312670007
 23
728.6389679733688
 33
0.0
  0
LINE
  5
87F
330
A
100
AcDbEntity
  8
寸法線
100
AcDbLine
 10
657.7889312670007
 20
728.6389679733688
 30
0.0
 11
662.7889312670007
 21
728.6389679733688
 31
0.0
  0
LINE
  5
880
330
A
100
AcDbEntity
  8
寸法線
100
AcDbLine
 10
657.7889312670007
 20
728.6389679733688
 30
0.0
 11
881.330598728401
 21
728.6389679733688
 31
0.0
  0
LINE
  5
881
330
A
100
AcDbEntity
  8
寸法線
100
AcDbLine
 10
657.7889312670007
 20
728.6389679733688
 30
0.0
 11
934.2472638056007
 21
728.6389679733688
 31
0.0
  0
LINE
  5
882
330
A
100
AcDbEntity
  8
寸法線
100
AcDbLine
 10
1157.788931267001
 20
728.6389679733688
 30
0.0
 11
881.330598728401
 21
728.6389679733688
 31
0.0
  0
LINE
  5
883
330
A
100
AcDbEntity
  8
寸法線
100
AcDbLine
 10
1157.788931267001
 20
728.6389679733688
 30
0.0
 11
934.2472638056007
 21
728.6389679733688
 31
0.0
  0
LINE
  5
884
330
A
100
AcDbEntity
  8
寸法線
100
AcDbLine
 10
657.7889312670007
 20
694.203209065069
 30
0.0
 11
657.7889312670007
 21
730.638967973369
 31
0.0
  0
LINE
  5
885
330
A
100
AcDbEntity
  8
寸法線
100
AcDbLine
 10
1157.788931267001
 20
689.7032090650688
 30
0.0
 11
1157.788931267001
 21
730.638967973369
 31
0.0
  0
TEXT
  5
886
330
A
100
AcDbEntity
  8
寸法線
100
AcDbText
 10
884.8583764002007
 20
730.6973012748689
 30
0.0
 40
5.9972220421
  1
500（天板側）
100
AcDbText
  0
SOLID
  5
887
330
A
100
AcDbEntity
  8
寸法線
100
AcDbTrace
 10
1192.756964620001
 20
443.203209065069
 30
0.0
 11
1191.256964620001
 21
449.2032090650688
 31
0.0
 12
1194.256964620001
 22
449.2032090650688
 32
0.0
 13
1192.756964620001
 23
447.7032090650689
 33
0.0
  0
LINE
  5
888
330
A
100
AcDbEntity
  8
寸法線
100
AcDbLine
 10
1192.756964620001
 20
443.203209065069
 30
0.0
 11
1192.756964620001
 21
448.2032090650688
 31
0.0
  0
SOLID
  5
889
330
A
100
AcDbEntity
  8
寸法線
100
AcDbTrace
 10
1192.756964620001
 20
693.203209065069
 30
0.0
 11
1194.256964620001
 21
687.203209065069
 31
0.0
 12
1191.256964620001
 22
687.203209065069
 32
0.0
 13
1192.756964620001
 23
688.703209065069
 33
0.0
  0
LINE
  5
88A
330
A
100
AcDbEntity
  8
寸法線
100
AcDbLine
 10
1192.756964620001
 20
693.203209065069
 30
0.0
 11
1192.756964620001
 21
688.203209065069
 31
0.0
  0
LINE
  5
88B
330
A
100
AcDbEntity
  8
寸法線
100
AcDbLine
 10
1192.756964620001
 20
693.203209065069
 30
0.0
 11
1192.756964620001
 21
545.2726541982689
 31
0.0
  0
LINE
  5
88C
330
A
100
AcDbEntity
  8
寸法線
100
AcDbLine
 10
1192.756964620001
 20
693.203209065069
 30
0.0
 11
1192.756964620001
 21
591.133763931869
 31
0.0
  0
LINE
  5
88D
330
A
100
AcDbEntity
  8
寸法線
100
AcDbLine
 10
1192.756964620001
 20
443.203209065069
 30
0.0
 11
1192.756964620001
 21
545.2726541982689
 31
0.0
  0
LINE
  5
88E
330
A
100
AcDbEntity
  8
寸法線
100
AcDbLine
 10
1192.756964620001
 20
443.203209065069
 30
0.0
 11
1192.756964620001
 21
591.133763931869
 31
0.0
  0
LINE
  5
88F
330
A
100
AcDbEntity
  8
寸法線
100
AcDbLine
 10
1154.288931267001
 20
693.203209065069
 30
0.0
 11
1194.756964620001
 21
693.203209065069
 31
0.0
  0
LINE
  5
890
330
A
100
AcDbEntity
  8
寸法線
100
AcDbLine
 10
1159.217535987501
 20
443.203209065069
 30
0.0
 11
1194.756964620001
 21
443.203209065069
 31
0.0
  0
TEXT
  5
891
330
A
100
AcDbEntity
  8
寸法線
100
AcDbText
 10
1190.698631318401
 20
548.8004318700689
 30
0.0
 40
5.9972220421
  1
250（壁側）
 50
90.0
100
AcDbText
  0
SOLID
  5
892
330
A
100
AcDbEntity
  8
寸法線
100
AcDbTrace
 10
1048.681737780701
 20
566.6518273313687
 30
0.0
 11
1045.974078787301
 21
561.091379258169
 31
0.0
 12
1043.675945457901
 22
563.019742087169
 32
0.0
 13
1045.789193537101
 23
563.2046273373687
 33
0.0
  0
LINE
  5
893
330
A
100
AcDbEntity
  8
寸法線
100
AcDbLine
 10
1048.681737780701
 20
566.6518273313687
 30
0.0
 11
1017.418750031301
 21
529.3940493657689
 31
0.0
  0
TEXT
  5
894
330
A
100
AcDbEntity
  8
寸法線
100
AcDbText
 10
1015.527045893801
 20
530.981377609769
 30
0.0
 40
5.9972220421
  1
(R1000)
 50
50.0
100
AcDbText
  0
SOLID
  5
895
330
A
100
AcDbEntity
  8
寸法線
100
AcDbTrace
 10
953.1029972497487
 20
329.2816039195626
 30
0.0
 11
947.1029972497486
 21
327.7816039195625
 31
0.0
 12
947.1029972497486
 22
330.7816039195625
 32
0.0
 13
948.6029972497487
 23
329.2816039195626
 33
0.0
  0
LINE
  5
896
330
A
100
AcDbEntity
  8
寸法線
100
AcDbLine
 10
953.1029972497487
 20
329.2816039195626
 30
0.0
 11
948.1029972497486
 21
329.2816039195626
 31
0.0
  0
SOLID
  5
897
330
A
100
AcDbEntity
  8
寸法線
100
AcDbTrace
 10
813.1029972497486
 20
329.2816039195626
 30
0.0
 11
819.1029972497487
 21
330.7816039195625
 31
0.0
 12
819.1029972497487
 22
327.7816039195625
 32
0.0
 13
817.6029972497486
 23
329.2816039195626
 33
0.0
  0
LINE
  5
898
330
A
100
AcDbEntity
  8
寸法線
100
AcDbLine
 10
813.1029972497486
 20
329.2816039195626
 30
0.0
 11
818.1029972497487
 21
329.2816039195626
 31
0.0
  0
LINE
  5
899
330
A
100
AcDbEntity
  8
寸法線
100
AcDbLine
 10
813.1029972497486
 20
329.2816039195626
 30
0.0
 11
874.2835530702487
 21
329.2816039195626
 31
0.0
  0
LINE
  5
89A
330
A
100
AcDbEntity
  8
寸法線
100
AcDbLine
 10
813.1029972497486
 20
329.2816039195626
 30
0.0
 11
891.9224414293488
 21
329.2816039195626
 31
0.0
  0
LINE
  5
89B
330
A
100
AcDbEntity
  8
寸法線
100
AcDbLine
 10
953.1029972497487
 20
329.2816039195626
 30
0.0
 11
874.2835530702487
 21
329.2816039195626
 31
0.0
  0
LINE
  5
89C
330
A
100
AcDbEntity
  8
寸法線
100
AcDbLine
 10
953.1029972497487
 20
329.2816039195626
 30
0.0
 11
891.9224414293488
 21
329.2816039195626
 31
0.0
  0
LINE
  5
89D
330
A
100
AcDbEntity
  8
寸法線
100
AcDbLine
 10
813.1029972497486
 20
373.2768001445626
 30
0.0
 11
813.1029972497486
 21
327.2816039195626
 31
0.0
  0
LINE
  5
89E
330
A
100
AcDbEntity
  8
寸法線
100
AcDbLine
 10
953.1029972497487
 20
351.2768001445626
 30
0.0
 11
953.1029972497487
 21
327.2816039195626
 31
0.0
  0
TEXT
  5
89F
330
A
100
AcDbEntity
  8
寸法線
100
AcDbText
 10
877.8113307420488
 20
331.3399372211626
 30
0.0
 40
5.9972220421
  1
140
100
AcDbText
  0
SOLID
  5
8A0
330
A
100
AcDbEntity
  8
寸法線
100
AcDbTrace
 10
1187.302615858249
 20
368.2768001445626
 30
0.0
 11
1188.802615858249
 21
362.2768001445626
 31
0.0
 12
1185.802615858249
 22
362.2768001445626
 32
0.0
 13
1187.302615858249
 23
363.7768001445626
 33
0.0
  0
LINE
  5
8A1
330
A
100
AcDbEntity
  8
寸法線
100
AcDbLine
 10
1187.302615858249
 20
368.2768001445626
 30
0.0
 11
1187.302615858249
 21
363.2768001445626
 31
0.0
  0
SOLID
  5
8A2
330
A
100
AcDbEntity
  8
寸法線
100
AcDbTrace
 10
1187.302615858249
 20
373.2768001445626
 30
0.0
 11
1185.802615858249
 21
379.2768001445626
 31
0.0
 12
1188.802615858249
 22
379.2768001445626
 32
0.0
 13
1187.302615858249
 23
377.7768001445626
 33
0.0
  0
LINE
  5
8A3
330
A
100
AcDbEntity
  8
寸法線
100
AcDbLine
 10
1187.302615858249
 20
373.2768001445626
 30
0.0
 11
1187.302615858249
 21
378.2768001445626
 31
0.0
  0
LINE
  5
8A4
330
A
100
AcDbEntity
  8
寸法線
100
AcDbLine
 10
1187.302615858249
 20
373.2768001445626
 30
0.0
 11
1187.302615858249
 21
373.2768001445626
 31
0.0
  0
LINE
  5
8A5
330
A
100
AcDbEntity
  8
寸法線
100
AcDbLine
 10
1187.302615858249
 20
373.2768001445626
 30
0.0
 11
1187.302615858249
 21
368.2768001445626
 31
0.0
  0
LINE
  5
8A6
330
A
100
AcDbEntity
  8
寸法線
100
AcDbLine
 10
1187.302615858249
 20
368.2768001445626
 30
0.0
 11
1187.302615858249
 21
373.2768001445626
 31
0.0
  0
LINE
  5
8A7
330
A
100
AcDbEntity
  8
寸法線
100
AcDbLine
 10
1187.302615858249
 20
368.2768001445626
 30
0.0
 11
1187.302615858249
 21
368.2768001445626
 31
0.0
  0
LINE
  5
8A8
330
A
100
AcDbEntity
  8
寸法線
100
AcDbLine
 10
1154.102997249748
 20
373.2768001445626
 30
0.0
 11
1189.302615858249
 21
373.2768001445626
 31
0.0
  0
LINE
  5
8A9
330
A
100
AcDbEntity
  8
寸法線
100
AcDbLine
 10
1154.102997249748
 20
368.2768001445626
 30
0.0
 11
1189.302615858249
 21
368.2768001445626
 31
0.0
  0
TEXT
  5
8AA
330
A
100
AcDbEntity
  8
寸法線
100
AcDbText
 10
1185.244282556648
 20
369.0129113086626
 30
0.0
 40
5.9972220421
  1
5
 50
90.0
100
AcDbText
  0
SOLID
  5
8AB
330
A
100
AcDbEntity
  8
寸法線
100
AcDbTrace
 10
637.7889312670007
 20
688.203209065069
 30
0.0
 11
639.2889312670011
 21
682.203209065069
 31
0.0
 12
636.2889312670009
 22
682.203209065069
 32
0.0
 13
637.7889312670007
 23
683.703209065069
 33
0.0
  0
LINE
  5
8AC
330
A
100
AcDbEntity
  8
寸法線
100
AcDbLine
 10
637.7889312670007
 20
688.203209065069
 30
0.0
 11
637.7889312670007
 21
683.203209065069
 31
0.0
  0
SOLID
  5
8AD
330
A
100
AcDbEntity
  8
寸法線
100
AcDbTrace
 10
637.7889312670007
 20
493.203209065069
 30
0.0
 11
636.2889312670009
 21
499.2032090650688
 31
0.0
 12
639.2889312670011
 22
499.2032090650688
 32
0.0
 13
637.7889312670007
 23
497.7032090650689
 33
0.0
  0
LINE
  5
8AE
330
A
100
AcDbEntity
  8
寸法線
100
AcDbLine
 10
637.7889312670007
 20
493.203209065069
 30
0.0
 11
637.7889312670007
 21
498.2032090650688
 31
0.0
  0
LINE
  5
8AF
330
A
100
AcDbEntity
  8
寸法線
100
AcDbLine
 10
637.7889312670007
 20
493.203209065069
 30
0.0
 11
637.7889312670007
 21
571.300431870069
 31
0.0
  0
LINE
  5
8B0
330
A
100
AcDbEntity
  8
寸法線
100
AcDbLine
 10
637.7889312670007
 20
493.203209065069
 30
0.0
 11
637.7889312670007
 21
610.1059862599688
 31
0.0
  0
LINE
  5
8B1
330
A
100
AcDbEntity
  8
寸法線
100
AcDbLine
 10
637.7889312670007
 20
688.203209065069
 30
0.0
 11
637.7889312670007
 21
571.300431870069
 31
0.0
  0
LINE
  5
8B2
330
A
100
AcDbEntity
  8
寸法線
100
AcDbLine
 10
637.7889312670007
 20
688.203209065069
 30
0.0
 11
637.7889312670007
 21
610.1059862599688
 31
0.0
  0
LINE
  5
8B3
330
A
100
AcDbEntity
  8
寸法線
100
AcDbLine
 10
1151.788931267001
 20
493.203209065069
 30
0.0
 11
635.788931267001
 21
493.203209065069
 31
0.0
  0
LINE
  5
8B4
330
A
100
AcDbEntity
  8
寸法線
100
AcDbLine
 10
656.7889312670009
 20
688.203209065069
 30
0.0
 11
635.788931267001
 21
688.203209065069
 31
0.0
  0
TEXT
  5
8B5
330
A
100
AcDbEntity
  8
寸法線
100
AcDbText
 10
635.730597965501
 20
574.828209541869
 30
0.0
 40
5.9972220421
  1
補強(195)
 50
90.0
100
AcDbText
  0
SOLID
  5
8B6
330
A
100
AcDbEntity
  8
寸法線
100
AcDbTrace
 10
1083.289824994501
 20
384.4382608038758
 30
0.0
 11
1077.138639054752
 21
385.080842732667
 31
0.0
 12
1078.164699484695
 22
387.8999205949463
 32
0.0
 13
1079.06120820096
 23
385.9773514488612
 33
0.0
  0
LINE
  5
8B7
330
A
100
AcDbEntity
  8
寸法線
100
AcDbLine
 10
1083.289824994501
 20
384.4382608038758
 30
0.0
 11
1005.946390301295
 21
412.588968848116
 31
0.0
  0
TEXT
  5
8B8
330
A
100
AcDbEntity
  8
寸法線
100
AcDbText
 10
1006.790990018702
 20
414.9094875002203
 30
0.0
 40
5.9972220421
  1
4-Φ6穴　皿Φ11
 50
339.9999999999999
100
AcDbText
  0
SOLID
  5
8B9
330
A
100
AcDbEntity
  8
寸法線
100
AcDbTrace
 10
1202.683639949948
 20
359.7768001445626
 30
0.0
 11
1204.183639949949
 21
353.7768001445626
 31
0.0
 12
1201.183639949948
 22
353.7768001445626
 32
0.0
 13
1202.683639949948
 23
355.2768001445626
 33
0.0
  0
LINE
  5
8BA
330
A
100
AcDbEntity
  8
寸法線
100
AcDbLine
 10
1202.683639949948
 20
359.7768001445626
 30
0.0
 11
1202.683639949948
 21
354.7768001445626
 31
0.0
  0
SOLID
  5
8BB
330
A
100
AcDbEntity
  8
寸法線
100
AcDbTrace
 10
1202.683639949948
 20
381.7768001445626
 30
0.0
 11
1201.183639949948
 21
387.7768001445626
 31
0.0
 12
1204.183639949949
 22
387.7768001445626
 32
0.0
 13
1202.683639949948
 23
386.2768001445626
 33
0.0
  0
LINE
  5
8BC
330
A
100
AcDbEntity
  8
寸法線
100
AcDbLine
 10
1202.683639949948
 20
381.7768001445626
 30
0.0
 11
1202.683639949948
 21
386.7768001445626
 31
0.0
  0
LINE
  5
8BD
330
A
100
AcDbEntity
  8
寸法線
100
AcDbLine
 10
1202.683639949948
 20
381.7768001445626
 30
0.0
 11
1202.683639949948
 21
363.7212448009626
 31
0.0
  0
LINE
  5
8BE
330
A
100
AcDbEntity
  8
寸法線
100
AcDbLine
 10
1202.683639949948
 20
381.7768001445626
 30
0.0
 11
1202.683639949948
 21
377.8323554882626
 31
0.0
  0
LINE
  5
8BF
330
A
100
AcDbEntity
  8
寸法線
100
AcDbLine
 10
1202.683639949948
 20
359.7768001445626
 30
0.0
 11
1202.683639949948
 21
363.7212448009626
 31
0.0
  0
LINE
  5
8C0
330
A
100
AcDbEntity
  8
寸法線
100
AcDbLine
 10
1202.683639949948
 20
359.7768001445626
 30
0.0
 11
1202.683639949948
 21
377.8323554882626
 31
0.0
  0
LINE
  5
8C1
330
A
100
AcDbEntity
  8
寸法線
100
AcDbLine
 10
1096.602997249748
 20
381.7768001445626
 30
0.0
 11
1204.683639949948
 21
381.7768001445626
 31
0.0
  0
LINE
  5
8C2
330
A
100
AcDbEntity
  8
寸法線
100
AcDbLine
 10
961.6029972497486
 20
359.7768001445626
 30
0.0
 11
1204.683639949948
 21
359.7768001445626
 31
0.0
  0
TEXT
  5
8C3
330
A
100
AcDbEntity
  8
寸法線
100
AcDbText
 10
1200.625306648449
 20
367.2490224727625
 30
0.0
 40
5.9972220421
  1
22
 50
90.0
100
AcDbText
  0
SOLID
  5
8C4
330
A
100
AcDbEntity
  8
寸法線
100
AcDbTrace
 10
567.5291201815008
 20
713.7332009878688
 30
0.0
 11
573.5291201815011
 21
715.2332009878688
 31
0.0
 12
573.5291201815011
 22
712.2332009878688
 32
0.0
 13
572.0291201815008
 23
713.7332009878688
 33
0.0
  0
LINE
  5
8C5
330
A
100
AcDbEntity
  8
寸法線
100
AcDbLine
 10
567.5291201815008
 20
713.7332009878688
 30
0.0
 11
572.5291201815008
 21
713.7332009878688
 31
0.0
  0
SOLID
  5
8C6
330
A
100
AcDbEntity
  8
寸法線
100
AcDbTrace
 10
562.5291201815008
 20
713.7332009878688
 30
0.0
 11
556.5291201815012
 21
712.2332009878688
 31
0.0
 12
556.5291201815012
 22
715.2332009878688
 32
0.0
 13
558.0291201815008
 23
713.7332009878688
 33
0.0
  0
LINE
  5
8C7
330
A
100
AcDbEntity
  8
寸法線
100
AcDbLine
 10
562.5291201815008
 20
713.7332009878688
 30
0.0
 11
557.529120181501
 21
713.7332009878688
 31
0.0
  0
LINE
  5
8C8
330
A
100
AcDbEntity
  8
寸法線
100
AcDbLine
 10
562.5291201815008
 20
713.7332009878688
 30
0.0
 11
562.5291201815008
 21
713.7332009878688
 31
0.0
  0
LINE
  5
8C9
330
A
100
AcDbEntity
  8
寸法線
100
AcDbLine
 10
562.5291201815008
 20
713.7332009878688
 30
0.0
 11
567.5291201815008
 21
713.7332009878688
 31
0.0
  0
LINE
  5
8CA
330
A
100
AcDbEntity
  8
寸法線
100
AcDbLine
 10
567.5291201815008
 20
713.7332009878688
 30
0.0
 11
562.5291201815008
 21
713.7332009878688
 31
0.0
  0
LINE
  5
8CB
330
A
100
AcDbEntity
  8
寸法線
100
AcDbLine
 10
567.5291201815008
 20
713.7332009878688
 30
0.0
 11
567.5291201815008
 21
713.7332009878688
 31
0.0
  0
LINE
  5
8CC
330
A
100
AcDbEntity
  8
寸法線
100
AcDbLine
 10
562.5291201815008
 20
689.203209065069
 30
0.0
 11
562.5291201815008
 21
715.7332009878688
 31
0.0
  0
LINE
  5
8CD
330
A
100
AcDbEntity
  8
寸法線
100
AcDbLine
 10
567.5291201815008
 20
689.203209065069
 30
0.0
 11
567.5291201815008
 21
715.7332009878688
 31
0.0
  0
TEXT
  5
8CE
330
A
100
AcDbEntity
  8
寸法線
100
AcDbText
 10
563.456260817901
 20
715.7915342894686
 30
0.0
 40
5.9972220421
  1
5
100
AcDbText
  0
SOLID
  5
8CF
330
A
100
AcDbEntity
  8
寸法線
100
AcDbTrace
 10
609.467943030801
 20
463.2032090650689
 30
0.0
 11
607.9679430308011
 21
469.2032090650688
 31
0.0
 12
610.967943030801
 22
469.2032090650688
 32
0.0
 13
609.467943030801
 23
467.703209065069
 33
0.0
  0
LINE
  5
8D0
330
A
100
AcDbEntity
  8
寸法線
100
AcDbLine
 10
609.467943030801
 20
463.2032090650689
 30
0.0
 11
609.467943030801
 21
468.203209065069
 31
0.0
  0
SOLID
  5
8D1
330
A
100
AcDbEntity
  8
寸法線
100
AcDbTrace
 10
609.467943030801
 20
603.203209065069
 30
0.0
 11
610.967943030801
 21
597.203209065069
 31
0.0
 12
607.9679430308011
 22
597.203209065069
 32
0.0
 13
609.467943030801
 23
598.703209065069
 33
0.0
  0
LINE
  5
8D2
330
A
100
AcDbEntity
  8
寸法線
100
AcDbLine
 10
609.467943030801
 20
603.203209065069
 30
0.0
 11
609.467943030801
 21
598.203209065069
 31
0.0
  0
LINE
  5
8D3
330
A
100
AcDbEntity
  8
寸法線
100
AcDbLine
 10
609.467943030801
 20
603.203209065069
 30
0.0
 11
609.467943030801
 21
524.383764885469
 31
0.0
  0
LINE
  5
8D4
330
A
100
AcDbEntity
  8
寸法線
100
AcDbLine
 10
609.467943030801
 20
603.203209065069
 30
0.0
 11
609.467943030801
 21
542.022653244569
 31
0.0
  0
LINE
  5
8D5
330
A
100
AcDbEntity
  8
寸法線
100
AcDbLine
 10
609.467943030801
 20
463.2032090650689
 30
0.0
 11
609.467943030801
 21
524.383764885469
 31
0.0
  0
LINE
  5
8D6
330
A
100
AcDbEntity
  8
寸法線
100
AcDbLine
 10
609.467943030801
 20
463.2032090650689
 30
0.0
 11
609.467943030801
 21
542.022653244569
 31
0.0
  0
LINE
  5
8D7
330
A
100
AcDbEntity
  8
寸法線
100
AcDbLine
 10
584.5291201815008
 20
603.203209065069
 30
0.0
 11
611.467943030801
 21
603.203209065069
 31
0.0
  0
LINE
  5
8D8
330
A
100
AcDbEntity
  8
寸法線
100
AcDbLine
 10
573.5291201815011
 20
463.2032090650689
 30
0.0
 11
611.467943030801
 21
463.2032090650689
 31
0.0
  0
TEXT
  5
8D9
330
A
100
AcDbEntity
  8
寸法線
100
AcDbText
 10
607.409609729301
 20
527.9115425572689
 30
0.0
 40
5.9972220421
  1
140
 50
90.0
100
AcDbText
  0
SOLID
  5
8DA
330
A
100
AcDbEntity
  8
寸法線
100
AcDbTrace
 10
659.8067059353487
 20
383.7177523997627
 30
0.0
 11
653.8605535126487
 21
385.4187142940626
 31
0.0
 12
655.3605535126487
 22
388.0167905053625
 32
0.0
 13
655.9095916182488
 23
385.9677523997627
 33
0.0
  0
LINE
  5
8DB
330
A
100
AcDbEntity
  8
寸法線
100
AcDbLine
 10
659.8067059353487
 20
383.7177523997627
 30
0.0
 11
628.0342994122486
 21
402.0615598585624
 31
0.0
  0
TEXT
  5
8DC
330
A
100
AcDbEntity
  8
寸法線
100
AcDbText
 10
629.2690215974487
 20
404.2001614164624
 30
0.0
 40
5.9972220421
  1
R50
 50
330.0
100
AcDbText
  0
SOLID
  5
8DD
330
A
100
AcDbEntity
  8
寸法線
100
AcDbTrace
 10
1216.265583461948
 20
351.7768001445626
 30
0.0
 11
1214.765583461949
 21
357.7768001445627
 31
0.0
 12
1217.765583461948
 22
357.7768001445627
 32
0.0
 13
1216.265583461948
 23
356.2768001445626
 33
0.0
  0
LINE
  5
8DE
330
A
100
AcDbEntity
  8
寸法線
100
AcDbLine
 10
1216.265583461948
 20
351.7768001445626
 30
0.0
 11
1216.265583461948
 21
356.7768001445626
 31
0.0
  0
SOLID
  5
8DF
330
A
100
AcDbEntity
  8
寸法線
100
AcDbTrace
 10
1216.265583461948
 20
389.7768001445626
 30
0.0
 11
1217.765583461948
 21
383.7768001445626
 31
0.0
 12
1214.765583461949
 22
383.7768001445626
 32
0.0
 13
1216.265583461948
 23
385.2768001445626
 33
0.0
  0
LINE
  5
8E0
330
A
100
AcDbEntity
  8
寸法線
100
AcDbLine
 10
1216.265583461948
 20
389.7768001445626
 30
0.0
 11
1216.265583461948
 21
384.7768001445627
 31
0.0
  0
LINE
  5
8E1
330
A
100
AcDbEntity
  8
寸法線
100
AcDbLine
 10
1216.265583461948
 20
389.7768001445626
 30
0.0
 11
1216.265583461948
 21
363.7212448009626
 31
0.0
  0
LINE
  5
8E2
330
A
100
AcDbEntity
  8
寸法線
100
AcDbLine
 10
1216.265583461948
 20
389.7768001445626
 30
0.0
 11
1216.265583461948
 21
377.8323554882626
 31
0.0
  0
LINE
  5
8E3
330
A
100
AcDbEntity
  8
寸法線
100
AcDbLine
 10
1216.265583461948
 20
351.7768001445626
 30
0.0
 11
1216.265583461948
 21
363.7212448009626
 31
0.0
  0
LINE
  5
8E4
330
A
100
AcDbEntity
  8
寸法線
100
AcDbLine
 10
1216.265583461948
 20
351.7768001445626
 30
0.0
 11
1216.265583461948
 21
377.8323554882626
 31
0.0
  0
LINE
  5
8E5
330
A
100
AcDbEntity
  8
寸法線
100
AcDbLine
 10
1159.102997249748
 20
389.7768001445626
 30
0.0
 11
1218.265583461948
 21
389.7768001445626
 31
0.0
  0
LINE
  5
8E6
330
A
100
AcDbEntity
  8
寸法線
100
AcDbLine
 10
1159.102997249748
 20
351.7768001445626
 30
0.0
 11
1218.265583461948
 21
351.7768001445626
 31
0.0
  0
TEXT
  5
8E7
330
A
100
AcDbEntity
  8
寸法線
100
AcDbText
 10
1214.207250160348
 20
367.2490224727625
 30
0.0
 40
5.9972220421
  1
38
 50
90.0
100
AcDbText
  0
SOLID
  5
8E8
330
A
100
AcDbEntity
  8
寸法線
100
AcDbTrace
 10
609.467943030801
 20
623.203209065069
 30
0.0
 11
610.967943030801
 21
617.203209065069
 31
0.0
 12
607.9679430308011
 22
617.203209065069
 32
0.0
 13
609.467943030801
 23
618.7032090650689
 33
0.0
  0
LINE
  5
8E9
330
A
100
AcDbEntity
  8
寸法線
100
AcDbLine
 10
609.467943030801
 20
623.203209065069
 30
0.0
 11
609.467943030801
 21
618.203209065069
 31
0.0
  0
SOLID
  5
8EA
330
A
100
AcDbEntity
  8
寸法線
100
AcDbTrace
 10
609.467943030801
 20
643.203209065069
 30
0.0
 11
607.9679430308011
 21
649.203209065069
 31
0.0
 12
610.967943030801
 22
649.203209065069
 32
0.0
 13
609.467943030801
 23
647.7032090650689
 33
0.0
  0
LINE
  5
8EB
330
A
100
AcDbEntity
  8
寸法線
100
AcDbLine
 10
609.467943030801
 20
643.203209065069
 30
0.0
 11
609.467943030801
 21
648.203209065069
 31
0.0
  0
LINE
  5
8EC
330
A
100
AcDbEntity
  8
寸法線
100
AcDbLine
 10
609.467943030801
 20
643.203209065069
 30
0.0
 11
609.467943030801
 21
626.147653721369
 31
0.0
  0
LINE
  5
8ED
330
A
100
AcDbEntity
  8
寸法線
100
AcDbLine
 10
609.467943030801
 20
643.203209065069
 30
0.0
 11
609.467943030801
 21
640.258764408669
 31
0.0
  0
LINE
  5
8EE
330
A
100
AcDbEntity
  8
寸法線
100
AcDbLine
 10
609.467943030801
 20
623.203209065069
 30
0.0
 11
609.467943030801
 21
626.147653721369
 31
0.0
  0
LINE
  5
8EF
330
A
100
AcDbEntity
  8
寸法線
100
AcDbLine
 10
609.467943030801
 20
623.203209065069
 30
0.0
 11
609.467943030801
 21
640.258764408669
 31
0.0
  0
LINE
  5
8F0
330
A
100
AcDbEntity
  8
寸法線
100
AcDbLine
 10
584.5291201815008
 20
643.203209065069
 30
0.0
 11
611.467943030801
 21
643.203209065069
 31
0.0
  0
LINE
  5
8F1
330
A
100
AcDbEntity
  8
寸法線
100
AcDbLine
 10
562.5291201815008
 20
623.203209065069
 30
0.0
 11
611.467943030801
 21
623.203209065069
 31
0.0
  0
TEXT
  5
8F2
330
A
100
AcDbEntity
  8
寸法線
100
AcDbText
 10
607.409609729301
 20
629.6754313932689
 30
0.0
 40
5.9972220421
  1
20
 50
90.0
100
AcDbText
  0
SOLID
  5
8F3
330
A
100
AcDbEntity
  8
寸法線
100
AcDbTrace
 10
609.467943030801
 20
643.203209065069
 30
0.0
 11
610.967943030801
 21
637.203209065069
 31
0.0
 12
607.9679430308011
 22
637.203209065069
 32
0.0
 13
609.467943030801
 23
638.703209065069
 33
0.0
  0
LINE
  5
8F4
330
A
100
AcDbEntity
  8
寸法線
100
AcDbLine
 10
609.467943030801
 20
643.203209065069
 30
0.0
 11
609.467943030801
 21
638.203209065069
 31
0.0
  0
SOLID
  5
8F5
330
A
100
AcDbEntity
  8
寸法線
100
AcDbTrace
 10
609.467943030801
 20
663.203209065069
 30
0.0
 11
607.9679430308011
 21
669.203209065069
 31
0.0
 12
610.967943030801
 22
669.203209065069
 32
0.0
 13
609.467943030801
 23
667.703209065069
 33
0.0
  0
LINE
  5
8F6
330
A
100
AcDbEntity
  8
寸法線
100
AcDbLine
 10
609.467943030801
 20
663.203209065069
 30
0.0
 11
609.467943030801
 21
668.203209065069
 31
0.0
  0
LINE
  5
8F7
330
A
100
AcDbEntity
  8
寸法線
100
AcDbLine
 10
609.467943030801
 20
663.203209065069
 30
0.0
 11
609.467943030801
 21
646.147653721369
 31
0.0
  0
LINE
  5
8F8
330
A
100
AcDbEntity
  8
寸法線
100
AcDbLine
 10
609.467943030801
 20
663.203209065069
 30
0.0
 11
609.467943030801
 21
660.2587644086687
 31
0.0
  0
LINE
  5
8F9
330
A
100
AcDbEntity
  8
寸法線
100
AcDbLine
 10
609.467943030801
 20
643.203209065069
 30
0.0
 11
609.467943030801
 21
646.147653721369
 31
0.0
  0
LINE
  5
8FA
330
A
100
AcDbEntity
  8
寸法線
100
AcDbLine
 10
609.467943030801
 20
643.203209065069
 30
0.0
 11
609.467943030801
 21
660.2587644086687
 31
0.0
  0
LINE
  5
8FB
330
A
100
AcDbEntity
  8
寸法線
100
AcDbLine
 10
562.5291201815008
 20
663.203209065069
 30
0.0
 11
611.467943030801
 21
663.203209065069
 31
0.0
  0
LINE
  5
8FC
330
A
100
AcDbEntity
  8
寸法線
100
AcDbLine
 10
584.5291201815008
 20
643.203209065069
 30
0.0
 11
611.467943030801
 21
643.203209065069
 31
0.0
  0
TEXT
  5
8FD
330
A
100
AcDbEntity
  8
寸法線
100
AcDbText
 10
607.409609729301
 20
649.6754313932689
 30
0.0
 40
5.9972220421
  1
20
 50
90.0
100
AcDbText
  0
SOLID
  5
8FE
330
A
100
AcDbEntity
  8
寸法線
100
AcDbTrace
 10
609.467943030801
 20
663.203209065069
 30
0.0
 11
607.9679430308011
 21
669.203209065069
 31
0.0
 12
610.967943030801
 22
669.203209065069
 32
0.0
 13
609.467943030801
 23
667.703209065069
 33
0.0
  0
LINE
  5
8FF
330
A
100
AcDbEntity
  8
寸法線
100
AcDbLine
 10
609.467943030801
 20
663.203209065069
 30
0.0
 11
609.467943030801
 21
668.203209065069
 31
0.0
  0
SOLID
  5
900
330
A
100
AcDbEntity
  8
寸法線
100
AcDbTrace
 10
609.467943030801
 20
693.203209065069
 30
0.0
 11
610.967943030801
 21
687.203209065069
 31
0.0
 12
607.9679430308011
 22
687.203209065069
 32
0.0
 13
609.467943030801
 23
688.703209065069
 33
0.0
  0
LINE
  5
901
330
A
100
AcDbEntity
  8
寸法線
100
AcDbLine
 10
609.467943030801
 20
693.203209065069
 30
0.0
 11
609.467943030801
 21
688.203209065069
 31
0.0
  0
LINE
  5
902
330
A
100
AcDbEntity
  8
寸法線
100
AcDbLine
 10
609.467943030801
 20
693.203209065069
 30
0.0
 11
609.467943030801
 21
670.747712955569
 31
0.0
  0
LINE
  5
903
330
A
100
AcDbEntity
  8
寸法線
100
AcDbLine
 10
609.467943030801
 20
693.203209065069
 30
0.0
 11
609.467943030801
 21
684.858823642769
 31
0.0
  0
LINE
  5
904
330
A
100
AcDbEntity
  8
寸法線
100
AcDbLine
 10
609.467943030801
 20
663.203209065069
 30
0.0
 11
609.467943030801
 21
670.747712955569
 31
0.0
  0
LINE
  5
905
330
A
100
AcDbEntity
  8
寸法線
100
AcDbLine
 10
609.467943030801
 20
663.203209065069
 30
0.0
 11
609.467943030801
 21
684.858823642769
 31
0.0
  0
LINE
  5
906
330
A
100
AcDbEntity
  8
寸法線
100
AcDbLine
 10
585.0291201815008
 20
693.203209065069
 30
0.0
 11
611.467943030801
 21
693.203209065069
 31
0.0
  0
LINE
  5
907
330
A
100
AcDbEntity
  8
寸法線
100
AcDbLine
 10
562.5291201815008
 20
663.203209065069
 30
0.0
 11
611.467943030801
 21
663.203209065069
 31
0.0
  0
TEXT
  5
908
330
A
100
AcDbEntity
  8
寸法線
100
AcDbText
 10
607.409609729301
 20
674.2754906273687
 30
0.0
 40
5.9972220421
  1
30
 50
90.0
100
AcDbText
  0
SOLID
  5
909
330
A
100
AcDbEntity
  8
寸法線
100
AcDbTrace
 10
609.467943030801
 20
443.203209065069
 30
0.0
 11
610.967943030801
 21
437.2032090650689
 31
0.0
 12
607.9679430308011
 22
437.2032090650689
 32
0.0
 13
609.467943030801
 23
438.703209065069
 33
0.0
  0
LINE
  5
90A
330
A
100
AcDbEntity
  8
寸法線
100
AcDbLine
 10
609.467943030801
 20
443.203209065069
 30
0.0
 11
609.467943030801
 21
438.2032090650689
 31
0.0
  0
SOLID
  5
90B
330
A
100
AcDbEntity
  8
寸法線
100
AcDbTrace
 10
609.467943030801
 20
463.2032090650689
 30
0.0
 11
607.9679430308011
 21
469.2032090650688
 31
0.0
 12
610.967943030801
 22
469.2032090650688
 32
0.0
 13
609.467943030801
 23
467.703209065069
 33
0.0
  0
LINE
  5
90C
330
A
100
AcDbEntity
  8
寸法線
100
AcDbLine
 10
609.467943030801
 20
463.2032090650689
 30
0.0
 11
609.467943030801
 21
468.203209065069
 31
0.0
  0
LINE
  5
90D
330
A
100
AcDbEntity
  8
寸法線
100
AcDbLine
 10
609.467943030801
 20
463.2032090650689
 30
0.0
 11
609.467943030801
 21
446.147653721369
 31
0.0
  0
LINE
  5
90E
330
A
100
AcDbEntity
  8
寸法線
100
AcDbLine
 10
609.467943030801
 20
463.2032090650689
 30
0.0
 11
609.467943030801
 21
460.2587644086689
 31
0.0
  0
LINE
  5
90F
330
A
100
AcDbEntity
  8
寸法線
100
AcDbLine
 10
609.467943030801
 20
443.203209065069
 30
0.0
 11
609.467943030801
 21
446.147653721369
 31
0.0
  0
LINE
  5
910
330
A
100
AcDbEntity
  8
寸法線
100
AcDbLine
 10
609.467943030801
 20
443.203209065069
 30
0.0
 11
609.467943030801
 21
460.2587644086689
 31
0.0
  0
LINE
  5
911
330
A
100
AcDbEntity
  8
寸法線
100
AcDbLine
 10
573.5291201815011
 20
463.2032090650689
 30
0.0
 11
611.467943030801
 21
463.2032090650689
 31
0.0
  0
LINE
  5
912
330
A
100
AcDbEntity
  8
寸法線
100
AcDbLine
 10
566.0291201815008
 20
443.203209065069
 30
0.0
 11
611.467943030801
 21
443.203209065069
 31
0.0
  0
TEXT
  5
913
330
A
100
AcDbEntity
  8
寸法線
100
AcDbText
 10
607.409609729301
 20
449.6754313932688
 30
0.0
 40
5.9972220421
  1
20
 50
90.0
100
AcDbText
  0
SOLID
  5
914
330
A
100
AcDbEntity
  8
寸法線
100
AcDbTrace
 10
561.2220930756008
 20
467.172660490069
 30
0.0
 11
555.4468161554011
 21
469.385391041769
 31
0.0
 12
557.1675454644007
 22
471.8428471745689
 32
0.0
 13
557.5359088763009
 23
469.753754453669
 33
0.0
  0
LINE
  5
915
330
A
100
AcDbEntity
  8
寸法線
100
AcDbLine
 10
561.2220930756008
 20
467.172660490069
 30
0.0
 11
477.554220363201
 21
525.757535669269
 31
0.0
  0
TEXT
  5
916
330
A
100
AcDbEntity
  8
寸法線
100
AcDbText
 10
478.970635464801
 20
527.780386073469
 30
0.0
 40
5.9972220421
  1
5-Φ6穴　皿Φ11
 50
325.0
100
AcDbText
  0
SOLID
  5
917
330
A
100
AcDbEntity
  8
寸法線
100
AcDbTrace
 10
554.0291201815008
 20
728.7486344800688
 30
0.0
 11
560.0291201815008
 21
730.2486344800691
 31
0.0
 12
560.0291201815008
 22
727.248634480069
 32
0.0
 13
558.5291201815008
 23
728.7486344800688
 33
0.0
  0
LINE
  5
918
330
A
100
AcDbEntity
  8
寸法線
100
AcDbLine
 10
554.0291201815008
 20
728.7486344800688
 30
0.0
 11
559.0291201815008
 21
728.7486344800688
 31
0.0
  0
SOLID
  5
919
330
A
100
AcDbEntity
  8
寸法線
100
AcDbTrace
 10
546.0291201815008
 20
728.7486344800688
 30
0.0
 11
540.0291201815011
 21
727.248634480069
 31
0.0
 12
540.0291201815011
 22
730.2486344800691
 32
0.0
 13
541.5291201815008
 23
728.7486344800688
 33
0.0
  0
LINE
  5
91A
330
A
100
AcDbEntity
  8
寸法線
100
AcDbLine
 10
546.0291201815008
 20
728.7486344800688
 30
0.0
 11
541.0291201815008
 21
728.7486344800688
 31
0.0
  0
LINE
  5
91B
330
A
100
AcDbEntity
  8
寸法線
100
AcDbLine
 10
546.0291201815008
 20
728.7486344800688
 30
0.0
 11
546.0291201815008
 21
728.7486344800688
 31
0.0
  0
LINE
  5
91C
330
A
100
AcDbEntity
  8
寸法線
100
AcDbLine
 10
546.0291201815008
 20
728.7486344800688
 30
0.0
 11
554.0291201815008
 21
728.7486344800688
 31
0.0
  0
LINE
  5
91D
330
A
100
AcDbEntity
  8
寸法線
100
AcDbLine
 10
554.0291201815008
 20
728.7486344800688
 30
0.0
 11
546.0291201815008
 21
728.7486344800688
 31
0.0
  0
LINE
  5
91E
330
A
100
AcDbEntity
  8
寸法線
100
AcDbLine
 10
554.0291201815008
 20
728.7486344800688
 30
0.0
 11
554.0291201815008
 21
728.7486344800688
 31
0.0
  0
LINE
  5
91F
330
A
100
AcDbEntity
  8
寸法線
100
AcDbLine
 10
546.0291201815008
 20
694.203209065069
 30
0.0
 11
546.0291201815008
 21
730.7486344800691
 31
0.0
  0
LINE
  5
920
330
A
100
AcDbEntity
  8
寸法線
100
AcDbLine
 10
554.0291201815008
 20
671.703209065069
 30
0.0
 11
554.0291201815008
 21
730.7486344800691
 31
0.0
  0
TEXT
  5
921
330
A
100
AcDbEntity
  8
寸法線
100
AcDbText
 10
548.265231345601
 20
730.806967781569
 30
0.0
 40
5.9972220421
  1
8
100
AcDbText
  0
SOLID
  5
922
330
A
100
AcDbEntity
  8
寸法線
100
AcDbTrace
 10
576.0291201815008
 20
728.7486344800688
 30
0.0
 11
582.0291201815011
 21
730.2486344800691
 31
0.0
 12
582.0291201815011
 22
727.248634480069
 32
0.0
 13
580.5291201815008
 23
728.7486344800688
 33
0.0
  0
LINE
  5
923
330
A
100
AcDbEntity
  8
寸法線
100
AcDbLine
 10
576.0291201815008
 20
728.7486344800688
 30
0.0
 11
581.0291201815012
 21
728.7486344800688
 31
0.0
  0
SOLID
  5
924
330
A
100
AcDbEntity
  8
寸法線
100
AcDbTrace
 10
554.0291201815008
 20
728.7486344800688
 30
0.0
 11
548.0291201815012
 21
727.248634480069
 31
0.0
 12
548.0291201815012
 22
730.2486344800691
 32
0.0
 13
549.5291201815008
 23
728.7486344800688
 33
0.0
  0
LINE
  5
925
330
A
100
AcDbEntity
  8
寸法線
100
AcDbLine
 10
554.0291201815008
 20
728.7486344800688
 30
0.0
 11
549.029120181501
 21
728.7486344800688
 31
0.0
  0
LINE
  5
926
330
A
100
AcDbEntity
  8
寸法線
100
AcDbLine
 10
554.0291201815008
 20
728.7486344800688
 30
0.0
 11
557.9735648378009
 21
728.7486344800688
 31
0.0
  0
LINE
  5
927
330
A
100
AcDbEntity
  8
寸法線
100
AcDbLine
 10
554.0291201815008
 20
728.7486344800688
 30
0.0
 11
572.084675525101
 21
728.7486344800688
 31
0.0
  0
LINE
  5
928
330
A
100
AcDbEntity
  8
寸法線
100
AcDbLine
 10
576.0291201815008
 20
728.7486344800688
 30
0.0
 11
557.9735648378009
 21
728.7486344800688
 31
0.0
  0
LINE
  5
929
330
A
100
AcDbEntity
  8
寸法線
100
AcDbLine
 10
576.0291201815008
 20
728.7486344800688
 30
0.0
 11
572.084675525101
 21
728.7486344800688
 31
0.0
  0
LINE
  5
92A
330
A
100
AcDbEntity
  8
寸法線
100
AcDbLine
 10
554.0291201815008
 20
671.703209065069
 30
0.0
 11
554.0291201815008
 21
730.7486344800691
 31
0.0
  0
LINE
  5
92B
330
A
100
AcDbEntity
  8
寸法線
100
AcDbLine
 10
576.0291201815008
 20
651.703209065069
 30
0.0
 11
576.0291201815008
 21
730.7486344800691
 31
0.0
  0
TEXT
  5
92C
330
A
100
AcDbEntity
  8
寸法線
100
AcDbText
 10
561.5013425096009
 20
730.806967781569
 30
0.0
 40
5.9972220421
  1
22
100
AcDbText
  0
SOLID
  5
92D
330
A
100
AcDbEntity
  8
寸法線
100
AcDbTrace
 10
1088.102997249748
 20
329.2816039195626
 30
0.0
 11
1082.102997249748
 21
327.7816039195625
 31
0.0
 12
1082.102997249748
 22
330.7816039195625
 32
0.0
 13
1083.602997249748
 23
329.2816039195626
 33
0.0
  0
LINE
  5
92E
330
A
100
AcDbEntity
  8
寸法線
100
AcDbLine
 10
1088.102997249748
 20
329.2816039195626
 30
0.0
 11
1083.102997249748
 21
329.2816039195626
 31
0.0
  0
SOLID
  5
92F
330
A
100
AcDbEntity
  8
寸法線
100
AcDbTrace
 10
953.1029972497487
 20
329.2816039195626
 30
0.0
 11
959.1029972497487
 21
330.7816039195625
 31
0.0
 12
959.1029972497487
 22
327.7816039195625
 32
0.0
 13
957.6029972497487
 23
329.2816039195626
 33
0.0
  0
LINE
  5
930
330
A
100
AcDbEntity
  8
寸法線
100
AcDbLine
 10
953.1029972497487
 20
329.2816039195626
 30
0.0
 11
958.1029972497487
 21
329.2816039195626
 31
0.0
  0
LINE
  5
931
330
A
100
AcDbEntity
  8
寸法線
100
AcDbLine
 10
953.1029972497487
 20
329.2816039195626
 30
0.0
 11
1011.783553070249
 21
329.2816039195626
 31
0.0
  0
LINE
  5
932
330
A
100
AcDbEntity
  8
寸法線
100
AcDbLine
 10
953.1029972497487
 20
329.2816039195626
 30
0.0
 11
1029.422441429349
 21
329.2816039195626
 31
0.0
  0
LINE
  5
933
330
A
100
AcDbEntity
  8
寸法線
100
AcDbLine
 10
1088.102997249748
 20
329.2816039195626
 30
0.0
 11
1011.783553070249
 21
329.2816039195626
 31
0.0
  0
LINE
  5
934
330
A
100
AcDbEntity
  8
寸法線
100
AcDbLine
 10
1088.102997249748
 20
329.2816039195626
 30
0.0
 11
1029.422441429349
 21
329.2816039195626
 31
0.0
  0
LINE
  5
935
330
A
100
AcDbEntity
  8
寸法線
100
AcDbLine
 10
953.1029972497487
 20
351.2768001445626
 30
0.0
 11
953.1029972497487
 21
327.2816039195626
 31
0.0
  0
LINE
  5
936
330
A
100
AcDbEntity
  8
寸法線
100
AcDbLine
 10
1088.102997249748
 20
373.2768001445626
 30
0.0
 11
1088.102997249748
 21
327.2816039195626
 31
0.0
  0
TEXT
  5
937
330
A
100
AcDbEntity
  8
寸法線
100
AcDbText
 10
1015.311330742049
 20
331.3399372211626
 30
0.0
 40
5.9972220421
  1
135
100
AcDbText
  0
SOLID
  5
938
330
A
100
AcDbEntity
  8
寸法線
100
AcDbTrace
 10
678.1029972497488
 20
329.2816039195626
 30
0.0
 11
684.1029972497485
 21
330.7816039195625
 31
0.0
 12
684.1029972497485
 22
327.7816039195625
 32
0.0
 13
682.6029972497487
 23
329.2816039195626
 33
0.0
  0
LINE
  5
939
330
A
100
AcDbEntity
  8
寸法線
100
AcDbLine
 10
678.1029972497488
 20
329.2816039195626
 30
0.0
 11
683.1029972497487
 21
329.2816039195626
 31
0.0
  0
SOLID
  5
93A
330
A
100
AcDbEntity
  8
寸法線
100
AcDbTrace
 10
658.1029972497487
 20
329.2816039195626
 30
0.0
 11
652.1029972497488
 21
327.7816039195625
 31
0.0
 12
652.1029972497488
 22
330.7816039195625
 32
0.0
 13
653.6029972497487
 23
329.2816039195626
 33
0.0
  0
LINE
  5
93B
330
A
100
AcDbEntity
  8
寸法線
100
AcDbLine
 10
658.1029972497487
 20
329.2816039195626
 30
0.0
 11
653.1029972497488
 21
329.2816039195626
 31
0.0
  0
LINE
  5
93C
330
A
100
AcDbEntity
  8
寸法線
100
AcDbLine
 10
658.1029972497487
 20
329.2816039195626
 30
0.0
 11
661.0474419061487
 21
329.2816039195626
 31
0.0
  0
LINE
  5
93D
330
A
100
AcDbEntity
  8
寸法線
100
AcDbLine
 10
658.1029972497487
 20
329.2816039195626
 30
0.0
 11
675.1585525934487
 21
329.2816039195626
 31
0.0
  0
LINE
  5
93E
330
A
100
AcDbEntity
  8
寸法線
100
AcDbLine
 10
678.1029972497488
 20
329.2816039195626
 30
0.0
 11
661.0474419061487
 21
329.2816039195626
 31
0.0
  0
LINE
  5
93F
330
A
100
AcDbEntity
  8
寸法線
100
AcDbLine
 10
678.1029972497488
 20
329.2816039195626
 30
0.0
 11
675.1585525934487
 21
329.2816039195626
 31
0.0
  0
LINE
  5
940
330
A
100
AcDbEntity
  8
寸法線
100
AcDbLine
 10
658.1029972497487
 20
369.7768001445626
 30
0.0
 11
658.1029972497487
 21
327.2816039195626
 31
0.0
  0
LINE
  5
941
330
A
100
AcDbEntity
  8
寸法線
100
AcDbLine
 10
678.1029972497488
 20
362.2768001445626
 30
0.0
 11
678.1029972497488
 21
327.2816039195626
 31
0.0
  0
TEXT
  5
942
330
A
100
AcDbEntity
  8
寸法線
100
AcDbText
 10
664.5752195779485
 20
331.3399372211626
 30
0.0
 40
5.9972220421
  1
20
100
AcDbText
  0
SOLID
  5
943
330
A
100
AcDbEntity
  8
寸法線
100
AcDbTrace
 10
1202.683640227449
 20
351.7768001445626
 30
0.0
 11
1204.183640227449
 21
345.7768001445626
 31
0.0
 12
1201.183640227448
 22
345.7768001445626
 32
0.0
 13
1202.683640227449
 23
347.2768001445626
 33
0.0
  0
LINE
  5
944
330
A
100
AcDbEntity
  8
寸法線
100
AcDbLine
 10
1202.683640227449
 20
351.7768001445626
 30
0.0
 11
1202.683640227449
 21
346.7768001445626
 31
0.0
  0
SOLID
  5
945
330
A
100
AcDbEntity
  8
寸法線
100
AcDbTrace
 10
1202.683640227449
 20
359.7768001445626
 30
0.0
 11
1201.183640227448
 21
365.7768001445626
 31
0.0
 12
1204.183640227449
 22
365.7768001445626
 32
0.0
 13
1202.683640227449
 23
364.2768001445626
 33
0.0
  0
LINE
  5
946
330
A
100
AcDbEntity
  8
寸法線
100
AcDbLine
 10
1202.683640227449
 20
359.7768001445626
 30
0.0
 11
1202.683640227449
 21
364.7768001445626
 31
0.0
  0
LINE
  5
947
330
A
100
AcDbEntity
  8
寸法線
100
AcDbLine
 10
1202.683640227449
 20
359.7768001445626
 30
0.0
 11
1202.683640227449
 21
359.7768001445626
 31
0.0
  0
LINE
  5
948
330
A
100
AcDbEntity
  8
寸法線
100
AcDbLine
 10
1202.683640227449
 20
359.7768001445626
 30
0.0
 11
1202.683640227449
 21
351.7768001445626
 31
0.0
  0
LINE
  5
949
330
A
100
AcDbEntity
  8
寸法線
100
AcDbLine
 10
1202.683640227449
 20
351.7768001445626
 30
0.0
 11
1202.683640227449
 21
359.7768001445626
 31
0.0
  0
LINE
  5
94A
330
A
100
AcDbEntity
  8
寸法線
100
AcDbLine
 10
1202.683640227449
 20
351.7768001445626
 30
0.0
 11
1202.683640227449
 21
351.7768001445626
 31
0.0
  0
LINE
  5
94B
330
A
100
AcDbEntity
  8
寸法線
100
AcDbLine
 10
961.6029972497486
 20
359.7768001445626
 30
0.0
 11
1204.683640227449
 21
359.7768001445626
 31
0.0
  0
LINE
  5
94C
330
A
100
AcDbEntity
  8
寸法線
100
AcDbLine
 10
1160.411484465649
 20
351.7768001445626
 30
0.0
 11
1204.683640227449
 21
351.7768001445626
 31
0.0
  0
TEXT
  5
94D
330
A
100
AcDbEntity
  8
寸法線
100
AcDbText
 10
1200.625306925849
 20
354.0129113086627
 30
0.0
 40
5.9972220421
  1
8
 50
90.0
100
AcDbText
  0
SOLID
  5
94E
330
A
100
AcDbEntity
  8
寸法線
100
AcDbTrace
 10
778.8351449924008
 20
428.6470397331687
 30
0.0
 11
784.8351449924011
 21
430.147039733169
 31
0.0
 12
784.8351449924011
 22
427.147039733169
 32
0.0
 13
783.3351449924008
 23
428.6470397331687
 33
0.0
  0
LINE
  5
94F
330
A
100
AcDbEntity
  8
寸法線
100
AcDbLine
 10
778.8351449924008
 20
428.6470397331687
 30
0.0
 11
783.8351449924011
 21
428.6470397331687
 31
0.0
  0
SOLID
  5
950
330
A
100
AcDbEntity
  8
寸法線
100
AcDbTrace
 10
1152.788931267001
 20
428.6470397331687
 30
0.0
 11
1146.788931267001
 21
427.147039733169
 31
0.0
 12
1146.788931267001
 22
430.147039733169
 32
0.0
 13
1148.288931267001
 23
428.6470397331687
 33
0.0
  0
LINE
  5
951
330
A
100
AcDbEntity
  8
寸法線
100
AcDbLine
 10
1152.788931267001
 20
428.6470397331687
 30
0.0
 11
1147.788931267001
 21
428.6470397331687
 31
0.0
  0
LINE
  5
952
330
A
100
AcDbEntity
  8
寸法線
100
AcDbLine
 10
1152.788931267001
 20
428.6470397331687
 30
0.0
 11
946.4092609347012
 21
428.6470397331687
 31
0.0
  0
LINE
  5
953
330
A
100
AcDbEntity
  8
寸法線
100
AcDbLine
 10
1152.788931267001
 20
428.6470397331687
 30
0.0
 11
985.2148153247012
 21
428.6470397331687
 31
0.0
  0
LINE
  5
954
330
A
100
AcDbEntity
  8
寸法線
100
AcDbLine
 10
778.8351449924008
 20
428.6470397331687
 30
0.0
 11
946.4092609347012
 21
428.6470397331687
 31
0.0
  0
LINE
  5
955
330
A
100
AcDbEntity
  8
寸法線
100
AcDbLine
 10
778.8351449924008
 20
428.6470397331687
 30
0.0
 11
985.2148153247012
 21
428.6470397331687
 31
0.0
  0
LINE
  5
956
330
A
100
AcDbEntity
  8
寸法線
100
AcDbLine
 10
1152.788931267001
 20
442.2032090650689
 30
0.0
 11
1152.788931267001
 21
426.647039733169
 31
0.0
  0
LINE
  5
957
330
A
100
AcDbEntity
  8
寸法線
100
AcDbLine
 10
778.8351449924008
 20
687.203209065069
 30
0.0
 11
778.8351449924008
 21
426.647039733169
 31
0.0
  0
TEXT
  5
958
330
A
100
AcDbEntity
  8
寸法線
100
AcDbText
 10
949.9370386065006
 20
430.7053730347688
 30
0.0
 40
5.9972220421
  1
補強(375)
100
AcDbText
  0
SOLID
  5
959
330
A
100
AcDbEntity
  8
寸法線
100
AcDbTrace
 10
813.1029972497486
 20
329.2816039195626
 30
0.0
 11
807.1029972497486
 21
327.7816039195625
 31
0.0
 12
807.1029972497486
 22
330.7816039195625
 32
0.0
 13
808.6029972497486
 23
329.2816039195626
 33
0.0
  0
LINE
  5
95A
330
A
100
AcDbEntity
  8
寸法線
100
AcDbLine
 10
813.1029972497486
 20
329.2816039195626
 30
0.0
 11
808.1029972497486
 21
329.2816039195626
 31
0.0
  0
SOLID
  5
95B
330
A
100
AcDbEntity
  8
寸法線
100
AcDbTrace
 10
678.1029972497488
 20
329.2816039195626
 30
0.0
 11
684.1029972497485
 21
330.7816039195625
 31
0.0
 12
684.1029972497485
 22
327.7816039195625
 32
0.0
 13
682.6029972497487
 23
329.2816039195626
 33
0.0
  0
LINE
  5
95C
330
A
100
AcDbEntity
  8
寸法線
100
AcDbLine
 10
678.1029972497488
 20
329.2816039195626
 30
0.0
 11
683.1029972497487
 21
329.2816039195626
 31
0.0
  0
LINE
  5
95D
330
A
100
AcDbEntity
  8
寸法線
100
AcDbLine
 10
678.1029972497488
 20
329.2816039195626
 30
0.0
 11
736.7835530702485
 21
329.2816039195626
 31
0.0
  0
LINE
  5
95E
330
A
100
AcDbEntity
  8
寸法線
100
AcDbLine
 10
678.1029972497488
 20
329.2816039195626
 30
0.0
 11
754.4224414293487
 21
329.2816039195626
 31
0.0
  0
LINE
  5
95F
330
A
100
AcDbEntity
  8
寸法線
100
AcDbLine
 10
813.1029972497486
 20
329.2816039195626
 30
0.0
 11
736.7835530702485
 21
329.2816039195626
 31
0.0
  0
LINE
  5
960
330
A
100
AcDbEntity
  8
寸法線
100
AcDbLine
 10
813.1029972497486
 20
329.2816039195626
 30
0.0
 11
754.4224414293487
 21
329.2816039195626
 31
0.0
  0
LINE
  5
961
330
A
100
AcDbEntity
  8
寸法線
100
AcDbLine
 10
678.1029972497488
 20
362.2768001445626
 30
0.0
 11
678.1029972497488
 21
327.2816039195626
 31
0.0
  0
LINE
  5
962
330
A
100
AcDbEntity
  8
寸法線
100
AcDbLine
 10
813.1029972497486
 20
373.2768001445626
 30
0.0
 11
813.1029972497486
 21
327.2816039195626
 31
0.0
  0
TEXT
  5
963
330
A
100
AcDbEntity
  8
寸法線
100
AcDbText
 10
740.3113307420487
 20
331.3399372211626
 30
0.0
 40
5.9972220421
  1
135
100
AcDbText
  0
SOLID
  5
964
330
A
100
AcDbEntity
  8
寸法線
100
AcDbTrace
 10
609.467943030801
 20
603.203209065069
 30
0.0
 11
610.967943030801
 21
597.203209065069
 31
0.0
 12
607.9679430308011
 22
597.203209065069
 32
0.0
 13
609.467943030801
 23
598.703209065069
 33
0.0
  0
LINE
  5
965
330
A
100
AcDbEntity
  8
寸法線
100
AcDbLine
 10
609.467943030801
 20
603.203209065069
 30
0.0
 11
609.467943030801
 21
598.203209065069
 31
0.0
  0
SOLID
  5
966
330
A
100
AcDbEntity
  8
寸法線
100
AcDbTrace
 10
609.467943030801
 20
623.203209065069
 30
0.0
 11
607.9679430308011
 21
629.203209065069
 31
0.0
 12
610.967943030801
 22
629.203209065069
 32
0.0
 13
609.467943030801
 23
627.703209065069
 33
0.0
  0
LINE
  5
967
330
A
100
AcDbEntity
  8
寸法線
100
AcDbLine
 10
609.467943030801
 20
623.203209065069
 30
0.0
 11
609.467943030801
 21
628.203209065069
 31
0.0
  0
LINE
  5
968
330
A
100
AcDbEntity
  8
寸法線
100
AcDbLine
 10
609.467943030801
 20
623.203209065069
 30
0.0
 11
609.467943030801
 21
606.147653721369
 31
0.0
  0
LINE
  5
969
330
A
100
AcDbEntity
  8
寸法線
100
AcDbLine
 10
609.467943030801
 20
623.203209065069
 30
0.0
 11
609.467943030801
 21
620.258764408669
 31
0.0
  0
LINE
  5
96A
330
A
100
AcDbEntity
  8
寸法線
100
AcDbLine
 10
609.467943030801
 20
603.203209065069
 30
0.0
 11
609.467943030801
 21
606.147653721369
 31
0.0
  0
LINE
  5
96B
330
A
100
AcDbEntity
  8
寸法線
100
AcDbLine
 10
609.467943030801
 20
603.203209065069
 30
0.0
 11
609.467943030801
 21
620.258764408669
 31
0.0
  0
LINE
  5
96C
330
A
100
AcDbEntity
  8
寸法線
100
AcDbLine
 10
562.5291201815008
 20
623.203209065069
 30
0.0
 11
611.467943030801
 21
623.203209065069
 31
0.0
  0
LINE
  5
96D
330
A
100
AcDbEntity
  8
寸法線
100
AcDbLine
 10
584.5291201815008
 20
603.203209065069
 30
0.0
 11
611.467943030801
 21
603.203209065069
 31
0.0
  0
TEXT
  5
96E
330
A
100
AcDbEntity
  8
寸法線
100
AcDbText
 10
607.409609729301
 20
609.6754313932689
 30
0.0
 40
5.9972220421
  1
20
 50
90.0
100
AcDbText
  0
LINE
  5
96F
330
A
100
AcDbEntity
  8
Layer1
 62
     5
370
    18
100
AcDbLine
 10
1152.788931267001
 20
533.9681731716686
 30
0.0
 11
1152.788931267001
 21
493.203209065069
 31
0.0
  0
LINE
  5
970
330
A
100
AcDbEntity
  8
Layer1
 62
     5
370
    18
100
AcDbLine
 10
778.8351449924008
 20
688.203209065069
 30
0.0
 11
869.7853742070009
 21
688.203209065069
 31
0.0
  0
LINE
  5
971
330
A
100
AcDbEntity
  8
Layer1
 62
     5
370
    18
100
AcDbLine
 10
778.8351449924008
 20
684.813591963069
 30
0.0
 11
778.8351449924008
 21
688.203209065069
 31
0.0
  0
ARC
  5
972
330
A
100
AcDbEntity
  8
Layer1
 62
     5
370
    18
100
AcDbCircle
 10
781.8097371516011
 20
685.2032090650689
 30
0.0
 40
3.0
100
AcDbArc
 50
187.4622169762
 51
255.0755660475999
  0
ARC
  5
973
330
A
100
AcDbEntity
  8
Layer1
 62
     5
370
    18
100
AcDbCircle
 10
523.4922188395009
 20
-283.961926365031
 30
0.0
 40
1032.0
100
AcDbArc
 50
52.4261399116
 51
70.3936859647
  0
ARC
  5
974
330
A
100
AcDbEntity
  8
Layer1
 62
     5
370
    18
100
AcDbCircle
 10
523.4922188395009
 20
-283.961926365031
 30
0.0
 40
1000.0
100
AcDbArc
 50
51.001745706
 51
75.07556604760001
  0
LINE
  5
975
330
A
100
AcDbEntity
  8
ﾚｲﾔｰ1
370
     5
100
AcDbLine
 10
693.4495085997487
 20
412.5583213859625
 30
0.0
 11
753.4495085997487
 21
412.5583213859625
 31
0.0
  0
LINE
  5
976
330
A
100
AcDbEntity
  8
ﾚｲﾔｰ1
370
     5
100
AcDbLine
 10
707.4495085997487
 20
398.5583213859626
 30
0.0
 11
767.4495085997486
 21
398.5583213859626
 31
0.0
  0
LINE
  5
977
330
A
100
AcDbEntity
  8
ﾚｲﾔｰ1
370
     5
100
AcDbLine
 10
705.4495085997487
 20
400.5583213859625
 30
0.0
 11
765.4495085997487
 21
400.5583213859625
 31
0.0
  0
LINE
  5
978
330
A
100
AcDbEntity
  8
ﾚｲﾔｰ1
370
     5
100
AcDbLine
 10
703.4495085997487
 20
402.5583213859626
 30
0.0
 11
763.4495085997486
 21
402.5583213859626
 31
0.0
  0
LINE
  5
979
330
A
100
AcDbEntity
  8
ﾚｲﾔｰ1
370
     5
100
AcDbLine
 10
701.4495085997487
 20
404.5583213859625
 30
0.0
 11
761.4495085997487
 21
404.5583213859625
 31
0.0
  0
LINE
  5
97A
330
A
100
AcDbEntity
  8
ﾚｲﾔｰ1
370
     5
100
AcDbLine
 10
699.4495085997487
 20
406.5583213859626
 30
0.0
 11
759.4495085997486
 21
406.5583213859626
 31
0.0
  0
LINE
  5
97B
330
A
100
AcDbEntity
  8
ﾚｲﾔｰ1
370
     5
100
AcDbLine
 10
697.4495085997487
 20
408.5583213859625
 30
0.0
 11
757.4495085997487
 21
408.5583213859625
 31
0.0
  0
LINE
  5
97C
330
A
100
AcDbEntity
  8
ﾚｲﾔｰ1
370
     5
100
AcDbLine
 10
695.4495085997487
 20
410.5583213859626
 30
0.0
 11
755.4495085997487
 21
410.5583213859626
 31
0.0
  0
MTEXT
  5
97D
330
A
100
AcDbEntity
  8
ﾚｲﾔｰ1
370
     5
100
AcDbMText
 10
717.3724678945488
 20
421.5126084261623
 30
0.0
 40
5.9972220421
 41
18.4230131025
 71
     1
 72
     1
  1
\W0.8;\fＭＳ ゴシック;\W1.0;ＨＬ
 73
     1
 44
1.0
1001
ACAD
1000
MTEXTBEGIN
1070
    73
1070
     1
1070
    44
1040
1.0
1070
    74
1070
     0
1000
MTEXTEND
  0
CIRCLE
  5
97E
330
A
100
AcDbEntity
  8
Layer1
 62
     5
370
    18
100
AcDbCircle
 10
813.1029972497486
 20
381.7768001445626
 30
0.0
 40
3.0
  0
LINE
  5
97F
330
A
100
AcDbEntity
  8
Layer1
 62
     5
370
    18
100
AcDbLine
 10
657.7889312670007
 20
688.203209065069
 30
0.0
 11
1147.788931267001
 21
688.203209065069
 31
0.0
  0
LINE
  5
980
330
A
100
AcDbEntity
  8
Layer1
 62
     5
370
    18
100
AcDbLine
 10
1158.102997249748
 20
351.7768001445626
 30
0.0
 11
661.8536729303484
 21
351.7768001445626
 31
0.0
  0
ARC
  5
981
330
A
100
AcDbEntity
  8
Layer1
 62
     5
370
    18
100
AcDbCircle
 10
708.1029972497487
 20
370.7768001445626
 30
0.0
 40
50.0
100
AcDbArc
 50
157.6663173422
 51
202.3336826578
  0
LINE
  5
982
330
A
100
AcDbEntity
  8
Layer1
 62
     5
370
    18
100
AcDbLine
 10
1158.102997249748
 20
389.7768001445626
 30
0.0
 11
1158.102997249748
 21
351.7768001445626
 31
0.0
  0
LINE
  5
983
330
A
100
AcDbEntity
  8
Layer1
 62
     5
370
    18
100
AcDbLine
 10
1153.102997249748
 20
389.7768001445626
 30
0.0
 11
1153.102997249748
 21
351.7768001445626
 31
0.0
  0
LINE
  5
984
330
A
100
AcDbEntity
  8
Layer1
 62
     5
370
    18
100
AcDbLine
 10
1153.102997249748
 20
368.2768001445626
 30
0.0
 11
779.1492109751487
 21
368.2768001445626
 31
0.0
  0
LINE
  5
985
330
A
100
AcDbEntity
  8
Layer1
 62
     5
370
    18
100
AcDbLine
 10
779.1492109751487
 20
373.2768001445626
 30
0.0
 11
779.1492109751487
 21
368.2768001445626
 31
0.0
  0
LINE
  5
986
330
A
100
AcDbEntity
  8
Layer1
 62
     5
370
    18
100
AcDbLine
 10
1153.102997249748
 20
373.2768001445626
 30
0.0
 11
779.1492109751487
 21
373.2768001445626
 31
0.0
  0
LINE
  5
987
330
A
100
AcDbEntity
  8
Layer1
  6
DASHDOT
 62
     3
370
    18
100
AcDbLine
 10
565.0291201815011
 20
698.203209065069
 30
0.0
 11
565.0291201815011
 21
438.2032090650689
 31
0.0
  0
LINE
  5
988
330
A
100
AcDbEntity
  8
Layer1
 62
     5
370
    18
100
AcDbLine
 10
1158.102997249748
 20
389.7768001445626
 30
0.0
 11
661.8536729303484
 21
389.7768001445626
 31
0.0
  0
LINE
  5
989
330
A
100
AcDbEntity
  8
Layer1
 62
     5
370
    18
100
AcDbLine
 10
657.7889312670007
 20
693.203209065069
 30
0.0
 11
1147.788931267001
 21
693.203209065069
 31
0.0
  0
CIRCLE
  5
98A
330
A
100
AcDbEntity
  8
Layer1
 62
     5
370
    18
100
AcDbCircle
 10
1088.102997249748
 20
381.7768001445626
 30
0.0
 40
3.0
  0
CIRCLE
  5
98B
330
A
100
AcDbEntity
  8
Layer1
 62
     5
370
    18
100
AcDbCircle
 10
1088.102997249748
 20
381.7768001445626
 30
0.0
 40
5.5
  0
CIRCLE
  5
98C
330
A
100
AcDbEntity
  8
Layer1
 62
     5
370
    18
100
AcDbCircle
 10
678.1029972497488
 20
370.7768001445626
 30
0.0
 40
5.5
  0
CIRCLE
  5
98D
330
A
100
AcDbEntity
  8
Layer1
 62
     5
370
    18
100
AcDbCircle
 10
678.1029972497488
 20
370.7768001445626
 30
0.0
 40
3.0
  0
CIRCLE
  5
98E
330
A
100
AcDbEntity
  8
Layer1
 62
     5
370
    18
100
AcDbCircle
 10
953.1029972497487
 20
359.7768001445626
 30
0.0
 40
3.0
  0
CIRCLE
  5
98F
330
A
100
AcDbEntity
  8
Layer1
 62
     5
370
    18
100
AcDbCircle
 10
953.1029972497487
 20
359.7768001445626
 30
0.0
 40
5.5
  0
LINE
  5
990
330
A
100
AcDbEntity
  8
Layer1
  6
DASHDOT
 62
     3
370
    18
100
AcDbLine
 10
945.6029972497487
 20
359.7768001445626
 30
0.0
 11
960.6029972497486
 21
359.7768001445626
 31
0.0
  0
LINE
  5
991
330
A
100
AcDbEntity
  8
Layer1
  6
DASHDOT
 62
     3
370
    18
100
AcDbLine
 10
953.1029972497487
 20
367.2768001445626
 30
0.0
 11
953.1029972497487
 21
352.2768001445626
 31
0.0
  0
LINE
  5
992
330
A
100
AcDbEntity
  8
Layer1
  6
DASHDOT
 62
     3
370
    18
100
AcDbLine
 10
670.6029972497487
 20
370.7768001445626
 30
0.0
 11
685.6029972497488
 21
370.7768001445626
 31
0.0
  0
LINE
  5
993
330
A
100
AcDbEntity
  8
Layer1
  6
DASHDOT
 62
     3
370
    18
100
AcDbLine
 10
678.1029972497488
 20
378.2768001445626
 30
0.0
 11
678.1029972497488
 21
363.2768001445626
 31
0.0
  0
LINE
  5
994
330
A
100
AcDbEntity
  8
Layer1
  6
DASHDOT
 62
     3
370
    18
100
AcDbLine
 10
1080.602997249748
 20
381.7768001445626
 30
0.0
 11
1095.602997249748
 21
381.7768001445626
 31
0.0
  0
LINE
  5
995
330
A
100
AcDbEntity
  8
Layer1
  6
DASHDOT
 62
     3
370
    18
100
AcDbLine
 10
1088.102997249748
 20
389.2768001445626
 30
0.0
 11
1088.102997249748
 21
374.2768001445626
 31
0.0
  0
LINE
  5
996
330
A
100
AcDbEntity
  8
Layer1
  6
DASHDOT
 62
     3
370
    18
100
AcDbLine
 10
805.6029972497487
 20
381.7768001445626
 30
0.0
 11
820.6029972497486
 21
381.7768001445626
 31
0.0
  0
LINE
  5
997
330
A
100
AcDbEntity
  8
Layer1
  6
DASHDOT
 62
     3
370
    18
100
AcDbLine
 10
813.1029972497486
 20
389.2768001445626
 30
0.0
 11
813.1029972497486
 21
374.2768001445626
 31
0.0
  0
LINE
  5
998
330
A
100
AcDbEntity
  8
Layer1
  6
DASHDOT
 62
     3
370
    18
100
AcDbLine
 10
1163.102997249748
 20
370.7768001445626
 30
0.0
 11
653.1029972497488
 21
370.7768001445626
 31
0.0
  0
ARC
  5
999
330
A
100
AcDbEntity
  8
Layer1
 62
     5
370
    18
100
AcDbCircle
 10
565.0291201815011
 20
493.203209065069
 30
0.0
 40
50.0
100
AcDbArc
 50
247.6663173422
 51
292.3336826578
  0
LINE
  5
99A
330
A
100
AcDbEntity
  8
Layer1
 62
     5
370
    18
100
AcDbLine
 10
584.0291201815008
 20
693.203209065069
 30
0.0
 11
546.0291201815008
 21
693.203209065069
 31
0.0
  0
LINE
  5
99B
330
A
100
AcDbEntity
  8
Layer1
 62
     5
370
    18
100
AcDbLine
 10
584.0291201815008
 20
688.203209065069
 30
0.0
 11
546.0291201815008
 21
688.203209065069
 31
0.0
  0
LINE
  5
99C
330
A
100
AcDbEntity
  8
Layer1
 62
     5
370
    18
100
AcDbLine
 10
584.0291201815008
 20
693.203209065069
 30
0.0
 11
584.0291201815008
 21
446.953884745669
 31
0.0
  0
LINE
  5
99D
330
A
100
AcDbEntity
  8
Layer1
 62
     5
370
    18
100
AcDbLine
 10
1152.788931267001
 20
443.203209065069
 30
0.0
 11
1157.788931267001
 21
443.203209065069
 31
0.0
  0
LINE
  5
99E
330
A
100
AcDbEntity
  8
Layer1
 62
     5
370
    18
100
AcDbLine
 10
1157.788931267001
 20
683.203209065069
 30
0.0
 11
1157.788931267001
 21
443.203209065069
 31
0.0
  0
LINE
  5
99F
330
A
100
AcDbEntity
  8
Layer1
 62
     5
370
    18
100
AcDbLine
 10
1152.788931267001
 20
683.203209065069
 30
0.0
 11
1152.788931267001
 21
443.203209065069
 31
0.0
  0
ARC
  5
9A0
330
A
100
AcDbEntity
  8
Layer1
 62
     5
370
    18
100
AcDbCircle
 10
1147.788931267001
 20
683.203209065069
 30
0.0
 40
5.0
100
AcDbArc
 50
0.0
 51
90.0
  0
ARC
  5
9A1
330
A
100
AcDbEntity
  8
Layer1
 62
     5
370
    18
100
AcDbCircle
 10
1147.788931267001
 20
683.203209065069
 30
0.0
 40
10.0
100
AcDbArc
 50
0.0
 51
90.0
  0
CIRCLE
  5
9A2
330
A
100
AcDbEntity
  8
Layer1
 62
     5
370
    18
100
AcDbCircle
 10
813.1029972497486
 20
381.7768001445626
 30
0.0
 40
5.5
  0
LINE
  5
9A3
330
A
100
AcDbEntity
  8
Layer1
  6
DASHDOT
 62
     3
370
    18
100
AcDbLine
 10
565.0291201815011
 20
470.7032090650689
 30
0.0
 11
565.0291201815011
 21
455.703209065069
 31
0.0
  0
LINE
  5
9A4
330
A
100
AcDbEntity
  8
Layer1
  6
DASHDOT
 62
     3
370
    18
100
AcDbLine
 10
557.529120181501
 20
463.2032090650689
 30
0.0
 11
572.5291201815008
 21
463.2032090650689
 31
0.0
  0
LINE
  5
9A5
330
A
100
AcDbEntity
  8
Layer1
 62
     5
370
    18
100
AcDbLine
 10
546.0291201815008
 20
693.203209065069
 30
0.0
 11
546.0291201815008
 21
446.953884745669
 31
0.0
  0
LINE
  5
9A6
330
A
100
AcDbEntity
  8
Layer1
 62
     5
370
    18
100
AcDbLine
 10
562.5291201815008
 20
688.203209065069
 30
0.0
 11
562.5291201815008
 21
493.203209065069
 31
0.0
  0
LINE
  5
9A7
330
A
100
AcDbEntity
  8
Layer1
 62
     5
370
    18
100
AcDbLine
 10
567.5291201815008
 20
688.203209065069
 30
0.0
 11
567.5291201815008
 21
493.203209065069
 31
0.0
  0
LINE
  5
9A8
330
A
100
AcDbEntity
  8
Layer1
 62
     5
370
    18
100
AcDbLine
 10
567.5291201815008
 20
493.203209065069
 30
0.0
 11
562.5291201815008
 21
493.203209065069
 31
0.0
  0
CIRCLE
  5
9A9
330
A
100
AcDbEntity
  8
Layer1
 62
     5
370
    18
100
AcDbCircle
 10
565.0291201815011
 20
463.2032090650689
 30
0.0
 40
5.5
  0
CIRCLE
  5
9AA
330
A
100
AcDbEntity
  8
Layer1
 62
     5
370
    18
100
AcDbCircle
 10
565.0291201815011
 20
463.2032090650689
 30
0.0
 40
3.0
  0
CIRCLE
  5
9AB
330
A
100
AcDbEntity
  8
Layer1
 62
     5
370
    18
100
AcDbCircle
 10
576.0291201815008
 20
603.203209065069
 30
0.0
 40
5.5
  0
CIRCLE
  5
9AC
330
A
100
AcDbEntity
  8
Layer1
 62
     5
370
    18
100
AcDbCircle
 10
576.0291201815008
 20
603.203209065069
 30
0.0
 40
3.0
  0
CIRCLE
  5
9AD
330
A
100
AcDbEntity
  8
Layer1
 62
     5
370
    18
100
AcDbCircle
 10
576.0291201815008
 20
643.203209065069
 30
0.0
 40
5.5
  0
CIRCLE
  5
9AE
330
A
100
AcDbEntity
  8
Layer1
 62
     5
370
    18
100
AcDbCircle
 10
576.0291201815008
 20
643.203209065069
 30
0.0
 40
3.0
  0
CIRCLE
  5
9AF
330
A
100
AcDbEntity
  8
Layer1
 62
     5
370
    18
100
AcDbCircle
 10
554.0291201815008
 20
663.203209065069
 30
0.0
 40
5.5
  0
CIRCLE
  5
9B0
330
A
100
AcDbEntity
  8
Layer1
 62
     5
370
    18
100
AcDbCircle
 10
554.0291201815008
 20
663.203209065069
 30
0.0
 40
3.0
  0
CIRCLE
  5
9B1
330
A
100
AcDbEntity
  8
Layer1
 62
     5
370
    18
100
AcDbCircle
 10
554.0291201815008
 20
623.203209065069
 30
0.0
 40
5.5
  0
CIRCLE
  5
9B2
330
A
100
AcDbEntity
  8
Layer1
 62
     5
370
    18
100
AcDbCircle
 10
554.0291201815008
 20
623.203209065069
 30
0.0
 40
3.0
  0
LINE
  5
9B3
330
A
100
AcDbEntity
  8
Layer1
  6
DASHDOT
 62
     3
370
    18
100
AcDbLine
 10
546.5291201815008
 20
623.203209065069
 30
0.0
 11
561.529120181501
 21
623.203209065069
 31
0.0
  0
LINE
  5
9B4
330
A
100
AcDbEntity
  8
Layer1
  6
DASHDOT
 62
     3
370
    18
100
AcDbLine
 10
554.0291201815008
 20
615.703209065069
 30
0.0
 11
554.0291201815008
 21
630.703209065069
 31
0.0
  0
LINE
  5
9B5
330
A
100
AcDbEntity
  8
Layer1
  6
DASHDOT
 62
     3
370
    18
100
AcDbLine
 10
546.5291201815008
 20
663.203209065069
 30
0.0
 11
561.529120181501
 21
663.203209065069
 31
0.0
  0
LINE
  5
9B6
330
A
100
AcDbEntity
  8
Layer1
  6
DASHDOT
 62
     3
370
    18
100
AcDbLine
 10
554.0291201815008
 20
670.703209065069
 30
0.0
 11
554.0291201815008
 21
655.703209065069
 31
0.0
  0
LINE
  5
9B7
330
A
100
AcDbEntity
  8
Layer1
  6
DASHDOT
 62
     3
370
    18
100
AcDbLine
 10
568.5291201815012
 20
643.203209065069
 30
0.0
 11
583.5291201815008
 21
643.203209065069
 31
0.0
  0
LINE
  5
9B8
330
A
100
AcDbEntity
  8
Layer1
 62
     5
370
    18
100
AcDbLine
 10
657.7889312670007
 20
693.203209065069
 30
0.0
 11
657.7889312670007
 21
688.203209065069
 31
0.0
  0
LINE
  5
9B9
330
A
100
AcDbEntity
  8
Layer1
  6
DASHDOT
 62
     3
370
    18
100
AcDbLine
 10
576.0291201815008
 20
650.703209065069
 30
0.0
 11
576.0291201815008
 21
635.703209065069
 31
0.0
  0
LINE
  5
9BA
330
A
100
AcDbEntity
  8
Layer1
  6
DASHDOT
 62
     3
370
    18
100
AcDbLine
 10
568.5291201815012
 20
603.203209065069
 30
0.0
 11
583.5291201815008
 21
603.203209065069
 31
0.0
  0
LINE
  5
9BB
330
A
100
AcDbEntity
  8
Layer1
  6
DASHDOT
 62
     3
370
    18
100
AcDbLine
 10
576.0291201815008
 20
610.703209065069
 30
0.0
 11
576.0291201815008
 21
595.703209065069
 31
0.0
  0
ENDSEC
  0
SECTION
  2
OBJECTS
  0
DICTIONARY
  5
19
330
0
100
AcDbDictionary
281
     1
  3
ACAD_COLOR
350
2B3
  3
ACAD_GROUP
350
1A
  3
ACAD_LAYOUT
350
1E
  3
ACAD_MATERIAL
350
2B2
  3
ACAD_MLINESTYLE
350
1B
  3
ACAD_PLOTSETTINGS
350
22
  3
ACAD_PLOTSTYLENAME
350
1F
  3
ACAD_WIPEOUT_VARS
350
23
  3
ACDBHEADERROUNDTRIPXREC
350
9ED
  3
AcDbVariableDictionary
350
9CB
  3
ASE_INDEX_DICTIONARY
350
9C9
  0
DICTIONARY
  5
2C5
330
2
100
AcDbDictionary
280
     1
281
     1
  3
ACAD_LAYERSTATES
360
2C6
  0
DICTIONARY
  5
2B3
102
{ACAD_REACTORS
330
19
102
}
330
19
100
AcDbDictionary
281
     1
  0
DICTIONARY
  5
1A
102
{ACAD_REACTORS
330
19
102
}
330
19
100
AcDbDictionary
281
     1
  0
DICTIONARY
  5
1E
102
{ACAD_REACTORS
330
19
102
}
330
19
100
AcDbDictionary
281
     1
  3
Layout1
350
21
  3
Model
350
20
  0
DICTIONARY
  5
2B2
102
{ACAD_REACTORS
330
19
102
}
330
19
100
AcDbDictionary
281
     1
  0
DICTIONARY
  5
1B
102
{ACAD_REACTORS
330
19
102
}
330
19
100
AcDbDictionary
281
     1
  3
Standard
350
1C
  0
DICTIONARY
  5
22
102
{ACAD_REACTORS
330
19
102
}
330
19
100
AcDbDictionary
281
     1
  0
ACDBDICTIONARYWDFLT
  5
1F
102
{ACAD_REACTORS
330
19
102
}
330
19
100
AcDbDictionary
281
     1
  3
Normal
350
1D
100
AcDbDictionaryWithDefault
340
1D
  0
WIPEOUTVARIABLES
  5
23
330
19
100
AcDbWipeoutVariables
 70
     1
  0
DICTIONARY
  5
9ED
102
{ACAD_REACTORS
330
19
102
}
330
19
100
AcDbDictionary
281
     1
  3
COLORDICT
350
9EF
  3
MATERIALDICT
350
9EE
  0
DICTIONARY
  5
9CB
102
{ACAD_REACTORS
330
19
102
}
330
19
100
AcDbDictionary
281
     1
  3
DIMASSOC
350
9CC
  3
PROJECTNAME
350
9CD
  0
DICTIONARY
  5
9C9
102
{ACAD_REACTORS
330
19
102
}
330
19
100
AcDbDictionary
281
     1
  3
ASEBlockHierarchyIndexRecord
350
9CA
1001
DCO15
1040
1776759266.093
  0
DICTIONARY
  5
2C6
102
{ACAD_REACTORS
330
2C5
102
}
330
2C5
100
AcDbDictionary
281
     1
  0
LAYOUT
  5
21
102
{ACAD_XDICTIONARY
360
9F2
102
}
102
{ACAD_REACTORS
330
1E
102
}
330
1E
100
AcDbPlotSettings
  1

  2

  4

  6

 40
0.0
 41
0.0
 42
0.0
 43
0.0
 44
0.0
 45
0.0
 46
0.0
 47
0.0
 48
0.0
 49
0.0
140
0.0
141
0.0
142
1.0
143
1.0
 70
     0
 72
     0
 73
     0
 74
     0
  7

 75
     0
147
1.0
148
0.0
149
0.0
100
AcDbLayout
  1
Layout1
 70
     0
 71
     1
 10
0.0
 20
0.0
 11
12.0
 21
9.0
 12
0.0
 22
0.0
 32
0.0
 14
1.000000000000000E+20
 24
1.000000000000000E+20
 34
1.000000000000000E+20
 15
-1.000000000000000E+20
 25
-1.000000000000000E+20
 35
-1.000000000000000E+20
146
0.0
 13
0.0
 23
0.0
 33
0.0
 16
1.0
 26
0.0
 36
0.0
 17
0.0
 27
1.0
 37
0.0
 76
     0
330
B
  0
LAYOUT
  5
20
102
{ACAD_XDICTIONARY
360
9F0
102
}
102
{ACAD_REACTORS
330
1E
102
}
330
1E
100
AcDbPlotSettings
  1

  2
クセロPDF2.pc3
  4
A3
  6

 40
3.174999952316282
 41
3.174999952316282
 42
3.17498779296875
 43
3.17498779296875
 44
419.9466552734373
 45
296.9259948730469
 46
0.0
 47
0.0
 48
429.3490919571485
 49
206.3508899628625
140
1271.344091957147
141
801.7008899628626
142
1.0
143
2.048861521241269
 70
 14512
 72
     1
 73
     0
 74
     4
  7
monochrome.stb
 75
     0
147
0.4880759336991046
148
-429.3490919571485
149
-206.3508899628625
100
AcDbLayout
  1
Model
 70
     0
 71
     0
 10
0.0
 20
0.0
 11
0.0
 21
0.0
 12
0.0
 22
0.0
 32
0.0
 14
0.0
 24
0.0
 34
0.0
 15
0.0
 25
0.0
 35
0.0
146
0.0
 13
0.0
 23
0.0
 33
0.0
 16
0.0
 26
0.0
 36
0.0
 17
0.0
 27
0.0
 37
0.0
 76
     0
330
A
  0
MLINESTYLE
  5
1C
102
{ACAD_REACTORS
330
1B
102
}
330
1B
100
AcDbMlineStyle
  2
STANDARD
 70
     0
  3

 62
     0
 51
90.0
 52
90.0
 71
     2
 49
0.5
 62
   256
  6
BYLAYER
 49
-0.5
 62
   256
  6
BYLAYER
  0
ACDBPLACEHOLDER
  5
1D
102
{ACAD_REACTORS
330
1F
102
}
330
1F
  0
XRECORD
  5
9EF
102
{ACAD_REACTORS
330
9ED
102
}
330
9ED
100
AcDbXrecord
280
     1
340
2B3
  0
XRECORD
  5
9EE
102
{ACAD_REACTORS
330
9ED
102
}
330
9ED
100
AcDbXrecord
280
     1
340
2B2
  0
DICTIONARYVAR
  5
9CC
102
{ACAD_REACTORS
330
9CB
102
}
330
9CB
100
DictionaryVariables
280
     0
  1
1
  0
DICTIONARYVAR
  5
9CD
102
{ACAD_REACTORS
330
9CB
102
}
330
9CB
100
DictionaryVariables
280
     0
  1

  0
XRECORD
  5
9CA
102
{ACAD_REACTORS
330
9C9
102
}
330
9C9
100
AcDbXrecord
280
     1
  0
DICTIONARY
  5
9F2
330
21
100
AcDbDictionary
280
     1
281
     1
  3
ACAD_XREC_ROUNDTRIP
360
9F3
  0
DICTIONARY
  5
9F0
330
20
100
AcDbDictionary
280
     1
281
     1
  3
ACAD_XREC_ROUNDTRIP
360
9F1
  0
XRECORD
  5
9F3
102
{ACAD_REACTORS
330
9F2
102
}
330
9F2
100
AcDbXrecord
280
     1
102
SHADEPLOT
 70
     0
102
SHADEPLOTRESLEVEL
 70
     2
102
SHADEPLOTCUSTOMDPI
 70
   300
  0
XRECORD
  5
9F1
102
{ACAD_REACTORS
330
9F0
102
}
330
9F0
100
AcDbXrecord
280
     1
102
SHADEPLOT
 70
     0
102
SHADEPLOTRESLEVEL
 70
     2
102
SHADEPLOTCUSTOMDPI
 70
   150
  0
ENDSEC
  0
EOF
