  0
SECTION
  2
HEADER
  9
$ACADVER
  1
AC1015
  9
$ACADMAINTVER
 70
    20
  9
$DWGCODEPAGE
  3
ANSI_932
  9
$INSBASE
 10
0.0
 20
0.0
 30
0.0
  9
$EXTMIN
 10
425.4639447343082
 20
175.2857336877887
 30
-0.0000000000000001
  9
$EXTMAX
 10
1267.458944734306
 20
770.6357336877888
 30
0.0000000000000001
  9
$LIMMIN
 10
0.0
 20
0.0
  9
$LIMMAX
 10
0.0
 20
0.0
  9
$ORTHOMODE
 70
     0
  9
$REGENMODE
 70
     1
  9
$FILLMODE
 70
     1
  9
$QTEXTMODE
 70
     0
  9
$MIRRTEXT
 70
     1
  9
$LTSCALE
 40
1.0
  9
$ATTMODE
 70
     1
  9
$TEXTSIZE
 40
0.35
  9
$TRACEWID
 40
0.05
  9
$TEXTSTYLE
  7
STANDARD
  9
$CLAYER
  8
0
  9
$CELTYPE
  6
CONTINUOUS
  9
$CECOLOR
 62
   256
  9
$CELTSCALE
 40
1.0
  9
$DISPSILH
 70
     0
  9
$DIMSCALE
 40
1.0
  9
$DIMASZ
 40
3.0
  9
$DIMEXO
 40
1.0
  9
$DIMDLI
 40
0.38
  9
$DIMRND
 40
0.0
  9
$DIMDLE
 40
0.0
  9
$DIMEXE
 40
0.5
  9
$DIMTP
 40
0.0
  9
$DIMTM
 40
0.0
  9
$DIMTXT
 40
3.527777777777777
  9
$DIMCEN
 40
0.09
  9
$DIMTSZ
 40
0.0
  9
$DIMTOL
 70
     0
  9
$DIMLIM
 70
     0
  9
$DIMTIH
 70
     0
  9
$DIMTOH
 70
     0
  9
$DIMSE1
 70
     0
  9
$DIMSE2
 70
     0
  9
$DIMTAD
 70
     1
  9
$DIMZIN
 70
     0
  9
$DIMBLK
  1

  9
$DIMASO
 70
     1
  9
$DIMSHO
 70
     1
  9
$DIMPOST
  1

  9
$DIMAPOST
  1

  9
$DIMALT
 70
     0
  9
$DIMALTD
 70
     3
  9
$DIMALTF
 40
25.4
  9
$DIMLFAC
 40
1.0
  9
$DIMTOFL
 70
     0
  9
$DIMTVP
 40
0.0
  9
$DIMTIX
 70
     0
  9
$DIMSOXD
 70
     0
  9
$DIMSAH
 70
     0
  9
$DIMBLK1
  1

  9
$DIMBLK2
  1

  9
$DIMSTYLE
  2
Standard
  9
$DIMCLRD
 70
     0
  9
$DIMCLRE
 70
     0
  9
$DIMCLRT
 70
     0
  9
$DIMTFAC
 40
1.0
  9
$DIMGAP
 40
0.09
  9
$DIMJUST
 70
     0
  9
$DIMSD1
 70
     0
  9
$DIMSD2
 70
     0
  9
$DIMTOLJ
 70
     1
  9
$DIMTZIN
 70
     0
  9
$DIMALTZ
 70
     0
  9
$DIMALTTZ
 70
     0
  9
$DIMUPT
 70
     0
  9
$DIMDEC
 70
     4
  9
$DIMTDEC
 70
     4
  9
$DIMALTU
 70
     2
  9
$DIMALTTD
 70
     2
  9
$DIMTXSTY
  7
STANDARD
  9
$DIMAUNIT
 70
     0
  9
$DIMADEC
 70
     0
  9
$DIMALTRND
 40
0.0
  9
$DIMAZIN
 70
     0
  9
$DIMDSEP
 70
    46
  9
$DIMATFIT
 70
     3
  9
$DIMFRAC
 70
     0
  9
$DIMLDRBLK
  1

  9
$DIMLUNIT
 70
     2
  9
$DIMLWD
 70
    -2
  9
$DIMLWE
 70
    -2
  9
$DIMTMOVE
 70
     0
  9
$LUNITS
 70
     2
  9
$LUPREC
 70
     4
  9
$SKETCHINC
 40
0.1
  9
$FILLETRAD
 40
0.0
  9
$AUNITS
 70
     0
  9
$AUPREC
 70
     0
  9
$MENU
  1
acad
  9
$ELEVATION
 40
0.0
  9
$PELEVATION
 40
0.0
  9
$THICKNESS
 40
0.0
  9
$LIMCHECK
 70
     0
  9
$CHAMFERA
 40
0.0
  9
$CHAMFERB
 40
0.0
  9
$CHAMFERC
 40
0.0
  9
$CHAMFERD
 40
0.0
  9
$SKPOLY
 70
     0
  9
$TDCREATE
 40
2455539.456631945
  9
$TDUCREATE
 40
2455539.081631945
  9
$TDUPDATE
 40
2458918.465618843
  9
$TDUUPDATE
 40
2458918.090618843
  9
$TDINDWG
 40
0.0159631713
  9
$TDUSRTIMER
 40
0.0159628125
  9
$USRTIMER
 70
     1
  9
$ANGBASE
 50
0.0
  9
$ANGDIR
 70
     0
  9
$PDMODE
 70
     0
  9
$PDSIZE
 40
0.0
  9
$PLINEWID
 40
0.0
  9
$SPLFRAME
 70
     0
  9
$SPLINETYPE
 70
     6
  9
$SPLINESEGS
 70
     8
  9
$HANDSEED
  5
DBA
  9
$SURFTAB1
 70
     6
  9
$SURFTAB2
 70
     6
  9
$SURFTYPE
 70
     6
  9
$SURFU
 70
     6
  9
$SURFV
 70
     6
  9
$UCSBASE
  2

  9
$UCSNAME
  2

  9
$UCSORG
 10
0.0
 20
0.0
 30
0.0
  9
$UCSXDIR
 10
1.0
 20
0.0
 30
0.0
  9
$UCSYDIR
 10
0.0
 20
1.0
 30
0.0
  9
$UCSORTHOREF
  2

  9
$UCSORTHOVIEW
 70
     0
  9
$UCSORGTOP
 10
0.0
 20
0.0
 30
0.0
  9
$UCSORGBOTTOM
 10
0.0
 20
0.0
 30
0.0
  9
$UCSORGLEFT
 10
0.0
 20
0.0
 30
0.0
  9
$UCSORGRIGHT
 10
0.0
 20
0.0
 30
0.0
  9
$UCSORGFRONT
 10
0.0
 20
0.0
 30
0.0
  9
$UCSORGBACK
 10
0.0
 20
0.0
 30
0.0
  9
$PUCSBASE
  2

  9
$PUCSNAME
  2

  9
$PUCSORG
 10
0.0
 20
0.0
 30
0.0
  9
$PUCSXDIR
 10
1.0
 20
0.0
 30
0.0
  9
$PUCSYDIR
 10
0.0
 20
1.0
 30
0.0
  9
$PUCSORTHOREF
  2

  9
$PUCSORTHOVIEW
 70
     0
  9
$PUCSORGTOP
 10
0.0
 20
0.0
 30
0.0
  9
$PUCSORGBOTTOM
 10
0.0
 20
0.0
 30
0.0
  9
$PUCSORGLEFT
 10
0.0
 20
0.0
 30
0.0
  9
$PUCSORGRIGHT
 10
0.0
 20
0.0
 30
0.0
  9
$PUCSORGFRONT
 10
0.0
 20
0.0
 30
0.0
  9
$PUCSORGBACK
 10
0.0
 20
0.0
 30
0.0
  9
$USERI1
 70
     0
  9
$USERI2
 70
     0
  9
$USERI3
 70
     0
  9
$USERI4
 70
     0
  9
$USERI5
 70
     0
  9
$USERR1
 40
0.0
  9
$USERR2
 40
0.0
  9
$USERR3
 40
0.0
  9
$USERR4
 40
0.0
  9
$USERR5
 40
0.0
  9
$WORLDVIEW
 70
     1
  9
$SHADEDGE
 70
     3
  9
$SHADEDIF
 70
    70
  9
$TILEMODE
 70
     1
  9
$MAXACTVP
 70
    64
  9
$PINSBASE
 10
0.0
 20
0.0
 30
0.0
  9
$PLIMCHECK
 70
     0
  9
$PEXTMIN
 10
1.000000000000000E+20
 20
1.000000000000000E+20
 30
1.000000000000000E+20
  9
$PEXTMAX
 10
-1.000000000000000E+20
 20
-1.000000000000000E+20
 30
-1.000000000000000E+20
  9
$PLIMMIN
 10
0.0
 20
0.0
  9
$PLIMMAX
 10
12.0
 20
9.0
  9
$UNITMODE
 70
     0
  9
$VISRETAIN
 70
     1
  9
$PLINEGEN
 70
     0
  9
$PSLTSCALE
 70
     1
  9
$TREEDEPTH
 70
  3020
  9
$CMLSTYLE
  2
Standard
  9
$CMLJUST
 70
     0
  9
$CMLSCALE
 40
1.0
  9
$PROXYGRAPHICS
 70
     1
  9
$MEASUREMENT
 70
     0
  9
$CELWEIGHT
370
    -1
  9
$ENDCAPS
280
     0
  9
$JOINSTYLE
280
     0
  9
$LWDISPLAY
290
     0
  9
$INSUNITS
 70
     0
  9
$HYPERLINKBASE
  1

  9
$STYLESHEET
  1
monochrome.ctb
  9
$XEDIT
290
     1
  9
$CEPSNTYPE
380
     0
  9
$PSTYLEMODE
290
     1
  9
$FINGERPRINTGUID
  2
{D83B7E8F-D6AE-4204-8C8D-4AAAC1482BA2}
  9
$VERSIONGUID
  2
{98008C3C-AA90-4715-809A-D9D4B12A8A72}
  9
$EXTNAMES
290
     1
  9
$PSVPSCALE
 40
0.0
  9
$OLESTARTUP
290
     0
  0
ENDSEC
  0
SECTION
  2
CLASSES
  0
CLASS
  1
ACDBDICTIONARYWDFLT
  2
AcDbDictionaryWithDefault
  3
ObjectDBX Classes
 90
        0
280
     0
281
     0
  0
CLASS
  1
MATERIAL
  2
AcDbMaterial
  3
ObjectDBX Classes
 90
     1153
280
     0
281
     0
  0
CLASS
  1
VISUALSTYLE
  2
AcDbVisualStyle
  3
ObjectDBX Classes
 90
     4095
280
     0
281
     0
  0
CLASS
  1
TABLESTYLE
  2
AcDbTableStyle
  3
ObjectDBX Classes
 90
     4095
280
     0
281
     0
  0
CLASS
  1
SCALE
  2
AcDbScale
  3
ObjectDBX Classes
 90
     1153
280
     0
281
     0
  0
CLASS
  1
MLEADERSTYLE
  2
AcDbMLeaderStyle
  3
ACDB_MLEADERSTYLE_CLASS
 90
     4095
280
     0
281
     0
  0
CLASS
  1
ACDBSECTIONVIEWSTYLE
  2
AcDbSectionViewStyle
  3
ObjectDBX Classes
 90
     1025
280
     0
281
     0
  0
CLASS
  1
ACDBDETAILVIEWSTYLE
  2
AcDbDetailViewStyle
  3
ObjectDBX Classes
 90
     1025
280
     0
281
     0
  0
CLASS
  1
SORTENTSTABLE
  2
AcDbSortentsTable
  3
ObjectDBX Classes
 90
        0
280
     0
281
     0
  0
CLASS
  1
DICTIONARYVAR
  2
AcDbDictionaryVar
  3
ObjectDBX Classes
 90
        0
280
     0
281
     0
  0
CLASS
  1
CELLSTYLEMAP
  2
AcDbCellStyleMap
  3
ObjectDBX Classes
 90
     1152
280
     0
281
     0
  0
CLASS
  1
ACDBPLACEHOLDER
  2
AcDbPlaceHolder
  3
ObjectDBX Classes
 90
        0
280
     0
281
     0
  0
CLASS
  1
LAYOUT
  2
AcDbLayout
  3
ObjectDBX Classes
 90
        0
280
     0
281
     0
  0
ENDSEC
  0
SECTION
  2
TABLES
  0
TABLE
  2
VPORT
  5
300
330
0
100
AcDbSymbolTable
 70
     1
  0
VPORT
  5
C1E
330
300
100
AcDbSymbolTableRecord
100
AcDbViewportTableRecord
  2
*Active
 70
     0
 10
0.0
 20
0.0
 11
1.0
 21
1.0
 12
1046.899831638349
 22
307.8420015389716
 13
0.0
 23
0.0
 14
1.0
 24
1.0
 15
0.0
 25
0.0
 16
0.0
 26
0.0
 36
1.0
 17
0.0
 27
0.0
 37
0.0
 40
427.7973645188338
 41
2.671554252199413
 42
50.0
 43
0.0
 44
0.0
 50
0.0
 51
0.0
 71
     0
 72
   100
 73
     1
 74
     1
 75
     0
 76
     0
 77
     0
 78
     0
281
     0
 65
     1
110
0.0
120
0.0
130
0.0
111
1.0
121
0.0
131
0.0
112
0.0
122
1.0
132
0.0
 79
     0
146
0.0
1001
ACAD_NAV_VCDISPLAY
1070
     3
  0
ENDTAB
  0
TABLE
  2
LTYPE
  5
2FD
330
0
100
AcDbSymbolTable
 70
    11
  0
LTYPE
  5
30B
330
2FD
100
AcDbSymbolTableRecord
100
AcDbLinetypeTableRecord
  2
ByBlock
 70
     0
  3

 72
    65
 73
     0
 40
0.0
  0
LTYPE
  5
30C
330
2FD
100
AcDbSymbolTableRecord
100
AcDbLinetypeTableRecord
  2
ByLayer
 70
     0
  3

 72
    65
 73
     0
 40
0.0
  0
LTYPE
  5
30D
330
2FD
100
AcDbSymbolTableRecord
100
AcDbLinetypeTableRecord
  2
CONTINUOUS
 70
     0
  3
Solid line
 72
    65
 73
     0
 40
0.0
  0
LTYPE
  5
31D
330
2FD
100
AcDbSymbolTableRecord
100
AcDbLinetypeTableRecord
  2
DOT
 70
     0
  3

 72
    65
 73
     2
 40
1.0
 49
0.0
 74
     0
 49
-1.0
 74
     0
  0
LTYPE
  5
31E
330
2FD
100
AcDbSymbolTableRecord
100
AcDbLinetypeTableRecord
  2
DASHEDX2
 70
     0
  3

 72
    65
 73
     2
 40
4.0
 49
3.0
 74
     0
 49
-1.0
 74
     0
  0
LTYPE
  5
31F
330
2FD
100
AcDbSymbolTableRecord
100
AcDbLinetypeTableRecord
  2
DASHED
 70
     0
  3

 72
    65
 73
     2
 40
3.0
 49
2.0
 74
     0
 49
-1.0
 74
     0
  0
LTYPE
  5
320
330
2FD
100
AcDbSymbolTableRecord
100
AcDbLinetypeTableRecord
  2
DASHED2
 70
     0
  3

 72
    65
 73
     2
 40
2.0
 49
1.0
 74
     0
 49
-1.0
 74
     0
  0
LTYPE
  5
321
330
2FD
100
AcDbSymbolTableRecord
100
AcDbLinetypeTableRecord
  2
CENTERX2
 70
     0
  3

 72
    65
 73
     4
 40
43.0
 49
40.0
 74
     0
 49
-1.0
 74
     0
 49
1.0
 74
     0
 49
-1.0
 74
     0
  0
LTYPE
  5
322
330
2FD
100
AcDbSymbolTableRecord
100
AcDbLinetypeTableRecord
  2
CENTER
 70
     0
  3

 72
    65
 73
     4
 40
33.0
 49
30.0
 74
     0
 49
-1.0
 74
     0
 49
1.0
 74
     0
 49
-1.0
 74
     0
  0
LTYPE
  5
323
330
2FD
100
AcDbSymbolTableRecord
100
AcDbLinetypeTableRecord
  2
CENTER2
 70
     0
  3

 72
    65
 73
     4
 40
23.0
 49
20.0
 74
     0
 49
-1.0
 74
     0
 49
1.0
 74
     0
 49
-1.0
 74
     0
  0
LTYPE
  5
324
330
2FD
100
AcDbSymbolTableRecord
100
AcDbLinetypeTableRecord
  2
PHANTOMX2
 70
     0
  3

 72
    65
 73
     6
 40
45.0
 49
40.0
 74
     0
 49
-1.0
 74
     0
 49
1.0
 74
     0
 49
-1.0
 74
     0
 49
1.0
 74
     0
 49
-1.0
 74
     0
  0
LTYPE
  5
325
330
2FD
100
AcDbSymbolTableRecord
100
AcDbLinetypeTableRecord
  2
PHANTOM
 70
     0
  3

 72
    65
 73
     6
 40
35.0
 49
30.0
 74
     0
 49
-1.0
 74
     0
 49
1.0
 74
     0
 49
-1.0
 74
     0
 49
1.0
 74
     0
 49
-1.0
 74
     0
  0
LTYPE
  5
326
330
2FD
100
AcDbSymbolTableRecord
100
AcDbLinetypeTableRecord
  2
PHANTOM2
 70
     0
  3

 72
    65
 73
     6
 40
25.0
 49
20.0
 74
     0
 49
-1.0
 74
     0
 49
1.0
 74
     0
 49
-1.0
 74
     0
 49
1.0
 74
     0
 49
-1.0
 74
     0
  0
ENDTAB
  0
TABLE
  2
LAYER
  5
2FA
102
{ACAD_XDICTIONARY
360
504
102
}
330
0
100
AcDbSymbolTable
 70
    11
  0
LAYER
  5
308
102
{ACAD_XDICTIONARY
360
CFC
102
}
330
2FA
100
AcDbSymbolTableRecord
100
AcDbLayerTableRecord
  2
0
 70
     0
 62
     7
  6
CONTINUOUS
370
    -3
390
307
  0
LAYER
  5
327
330
2FA
100
AcDbSymbolTableRecord
100
AcDbLayerTableRecord
  2
DEFPOINTS
 70
     0
 62
     7
  6
CONTINUOUS
290
     0
370
    -3
390
307
  0
LAYER
  5
328
102
{ACAD_XDICTIONARY
360
CFE
102
}
330
2FA
100
AcDbSymbolTableRecord
100
AcDbLayerTableRecord
  2
____1
 70
     0
 62
     3
  6
CENTER2
370
    -3
390
307
  0
LAYER
  5
329
102
{ACAD_XDICTIONARY
360
D00
102
}
330
2FA
100
AcDbSymbolTableRecord
100
AcDbLayerTableRecord
  2
______
 70
     0
 62
     7
  6
CONTINUOUS
370
    -3
390
307
  0
LAYER
  5
32A
102
{ACAD_XDICTIONARY
360
D02
102
}
330
2FA
100
AcDbSymbolTableRecord
100
AcDbLayerTableRecord
  2
寸法線_1
 70
     0
 62
     7
  6
CONTINUOUS
370
    -3
390
307
  0
LAYER
  5
32B
102
{ACAD_XDICTIONARY
360
D04
102
}
330
2FA
100
AcDbSymbolTableRecord
100
AcDbLayerTableRecord
  2
CONSTRUCTION
 70
     0
 62
     7
  6
CONTINUOUS
370
    -3
390
307
  0
LAYER
  5
32C
102
{ACAD_XDICTIONARY
360
D06
102
}
330
2FA
100
AcDbSymbolTableRecord
100
AcDbLayerTableRecord
  2
DIMENSION
 70
     0
 62
     7
  6
CONTINUOUS
370
    -3
390
307
  0
LAYER
  5
32D
102
{ACAD_XDICTIONARY
360
D08
102
}
330
2FA
100
AcDbSymbolTableRecord
100
AcDbLayerTableRecord
  2
FORMAT
 70
     0
 62
     7
  6
CONTINUOUS
370
    -3
390
307
  0
LAYER
  5
32E
102
{ACAD_XDICTIONARY
360
D0A
102
}
330
2FA
100
AcDbSymbolTableRecord
100
AcDbLayerTableRecord
  2
____2
 70
     0
 62
     5
  6
CONTINUOUS
370
    -3
390
307
  0
LAYER
  5
32F
102
{ACAD_XDICTIONARY
360
D0C
102
}
330
2FA
100
AcDbSymbolTableRecord
100
AcDbLayerTableRecord
  2
0_1
 70
     0
 62
     5
  6
CONTINUOUS
370
    -3
390
307
  0
LAYER
  5
330
102
{ACAD_XDICTIONARY
360
D0E
102
}
330
2FA
100
AcDbSymbolTableRecord
100
AcDbLayerTableRecord
  2
DEFPOINTS_1
 70
     0
 62
     5
  6
CONTINUOUS
370
    -3
390
307
  0
ENDTAB
  0
TABLE
  2
STYLE
  5
2FB
330
0
100
AcDbSymbolTable
 70
     2
  0
STYLE
  5
309
330
2FB
100
AcDbSymbolTableRecord
100
AcDbTextStyleTableRecord
  2
STANDARD
 70
     0
 40
0.0
 41
1.0
 50
0.0
 71
     0
 42
0.35
  3
txt
  4

  0
STYLE
  5
331
330
2FB
100
AcDbSymbolTableRecord
100
AcDbTextStyleTableRecord
  2
STYLE1
 70
     0
 40
0.0
 41
1.0
 50
0.0
 71
     0
 42
0.35
  3
ＭＳ ゴシック
  4

  0
ENDTAB
  0
TABLE
  2
VIEW
  5
2FE
330
0
100
AcDbSymbolTable
 70
     0
  0
ENDTAB
  0
TABLE
  2
UCS
  5
2FF
330
0
100
AcDbSymbolTable
 70
     0
  0
ENDTAB
  0
TABLE
  2
APPID
  5
301
330
0
100
AcDbSymbolTable
 70
     4
  0
APPID
  5
30A
330
301
100
AcDbSymbolTableRecord
100
AcDbRegAppTableRecord
  2
ACAD
 70
     0
  0
APPID
  5
C70
330
301
100
AcDbSymbolTableRecord
100
AcDbRegAppTableRecord
  2
ACAD_NAV_VCDISPLAY
 70
     0
  0
APPID
  5
CF9
330
301
100
AcDbSymbolTableRecord
100
AcDbRegAppTableRecord
  2
ACAD_EXEMPT_FROM_CAD_STANDARDS
 70
     0
  0
APPID
  5
DB5
330
301
100
AcDbSymbolTableRecord
100
AcDbRegAppTableRecord
  2
ACAD_MLEADERVER
 70
     0
  0
ENDTAB
  0
TABLE
  2
DIMSTYLE
  5
302
330
0
100
AcDbSymbolTable
 70
     1
100
AcDbDimStyleTable
 71
     0
  0
DIMSTYLE
105
4FC
330
302
100
AcDbSymbolTableRecord
100
AcDbDimStyleTableRecord
  2
Standard
 70
     0
340
309
  0
ENDTAB
  0
TABLE
  2
BLOCK_RECORD
  5
2F9
330
0
100
AcDbSymbolTable
 70
     7
  0
BLOCK_RECORD
  5
318
330
2F9
100
AcDbSymbolTableRecord
100
AcDbBlockTableRecord
  2
*Model_Space
340
31B
  0
BLOCK_RECORD
  5
314
330
2F9
100
AcDbSymbolTableRecord
100
AcDbBlockTableRecord
  2
*Paper_Space
340
317
  0
BLOCK_RECORD
  5
340
330
2F9
100
AcDbSymbolTableRecord
100
AcDbBlockTableRecord
  2
C0
340
0
  0
BLOCK_RECORD
  5
347
330
2F9
100
AcDbSymbolTableRecord
100
AcDbBlockTableRecord
  2
C1
340
0
  0
BLOCK_RECORD
  5
34E
330
2F9
100
AcDbSymbolTableRecord
100
AcDbBlockTableRecord
  2
C2
340
0
  0
BLOCK_RECORD
  5
38B
330
2F9
100
AcDbSymbolTableRecord
100
AcDbBlockTableRecord
  2
C3
340
0
  0
BLOCK_RECORD
  5
392
330
2F9
100
AcDbSymbolTableRecord
100
AcDbBlockTableRecord
  2
C4
340
0
  0
BLOCK_RECORD
  5
3DB
330
2F9
100
AcDbSymbolTableRecord
100
AcDbBlockTableRecord
  2
C5
340
0
  0
BLOCK_RECORD
  5
C71
102
{ACAD_XDICTIONARY
360
C79
102
}
330
2F9
100
AcDbSymbolTableRecord
100
AcDbBlockTableRecord
  2
A$C50AA07C9
340
0
  0
ENDTAB
  0
ENDSEC
  0
SECTION
  2
BLOCKS
  0
BLOCK
  5
319
330
318
100
AcDbEntity
  8
0
100
AcDbBlockBegin
  2
*Model_Space
 70
     0
 10
0.0
 20
0.0
 30
0.0
  3
*Model_Space
  1

  0
ENDBLK
  5
31A
330
318
100
AcDbEntity
  8
0
100
AcDbBlockEnd
  0
BLOCK
  5
315
330
314
100
AcDbEntity
 67
     1
  8
0
100
AcDbBlockBegin
  2
*Paper_Space
 70
     0
 10
0.0
 20
0.0
 30
0.0
  3
*Paper_Space
  1

  0
ENDBLK
  5
316
330
314
100
AcDbEntity
 67
     1
  8
0
100
AcDbBlockEnd
  0
BLOCK
  5
341
330
340
100
AcDbEntity
  8
0
100
AcDbBlockBegin
  2
C0
 70
     0
 10
0.0
 20
0.0
 30
0.0000000000000001
  3
C0
  1

  0
TEXT
  5
342
330
340
100
AcDbEntity
  8
____1
  6
Continuous
 62
     7
100
AcDbText
 10
1065.101398184748
 20
42.54967734717504
 30
0.0000000000000001
 40
5.853287887573241
  1
1
  7
STYLE1
100
AcDbText
  0
LINE
  5
343
330
340
100
AcDbEntity
  8
____1
  6
Continuous
 62
     5
100
AcDbLine
 10
1061.614720003981
 20
41.44972871905917
 30
0.0000000000000001
 11
1071.514720003982
 21
41.44972871905917
 31
0.0000000000000001
  0
LINE
  5
344
330
340
100
AcDbEntity
  8
____1
  6
Continuous
 62
     5
100
AcDbLine
 10
1066.564720003981
 20
50.02338021652519
 30
0.0000000000000001
 11
1071.514720003982
 21
41.44972871905917
 31
0.0000000000000001
  0
LINE
  5
345
330
340
100
AcDbEntity
  8
____1
  6
Continuous
 62
     5
100
AcDbLine
 10
1066.564720003981
 20
50.02338021652519
 30
0.0000000000000001
 11
1061.614720003981
 21
41.44972871905917
 31
0.0000000000000001
  0
ENDBLK
  5
346
330
340
100
AcDbEntity
  8
0
100
AcDbBlockEnd
  0
BLOCK
  5
348
330
347
100
AcDbEntity
  8
0
100
AcDbBlockBegin
  2
C1
 70
     0
 10
0.0
 20
0.0
 30
0.0
  3
C1
  1

  0
TEXT
  5
349
330
347
100
AcDbEntity
  8
____1
  6
Continuous
 62
     7
100
AcDbText
 10
1138.858869899855
 20
-423.3633820358922
 30
0.0000000000000001
 40
5.853287887573241
  1
1
  7
STYLE1
100
AcDbText
  0
LINE
  5
34A
330
347
100
AcDbEntity
  8
____1
  6
Continuous
 62
     5
100
AcDbLine
 10
1135.372191719088
 20
-424.463330664008
 30
0.0000000000000001
 11
1145.272191719088
 21
-424.463330664008
 31
0.0000000000000001
  0
LINE
  5
34B
330
347
100
AcDbEntity
  8
____1
  6
Continuous
 62
     5
100
AcDbLine
 10
1140.322191719088
 20
-415.8896791665419
 30
0.0000000000000001
 11
1145.272191719088
 21
-424.463330664008
 31
0.0000000000000001
  0
LINE
  5
34C
330
347
100
AcDbEntity
  8
____1
  6
Continuous
 62
     5
100
AcDbLine
 10
1140.322191719088
 20
-415.8896791665419
 30
0.0000000000000001
 11
1135.372191719088
 21
-424.463330664008
 31
0.0000000000000001
  0
ENDBLK
  5
34D
330
347
100
AcDbEntity
  8
0
100
AcDbBlockEnd
  0
BLOCK
  5
34F
330
34E
100
AcDbEntity
  8
0
100
AcDbBlockBegin
  2
C2
 70
     0
 10
0.0
 20
0.0
 30
0.0
  3
C2
  1

  0
TEXT
  5
350
330
34E
100
AcDbEntity
  8
____1
  6
Continuous
 62
     7
100
AcDbText
 10
1087.960896871108
 20
-406.5600087099745
 30
0.0000000000000001
 40
5.853287887573241
  1
1
  7
STYLE1
100
AcDbText
  0
LINE
  5
351
330
34E
100
AcDbEntity
  8
____1
  6
Continuous
 62
     5
100
AcDbLine
 10
1084.474218690342
 20
-407.6599573380903
 30
0.0000000000000001
 11
1094.374218690342
 21
-407.6599573380903
 31
0.0000000000000001
  0
LINE
  5
352
330
34E
100
AcDbEntity
  8
____1
  6
Continuous
 62
     5
100
AcDbLine
 10
1089.424218690342
 20
-399.0863058406243
 30
0.0000000000000001
 11
1094.374218690342
 21
-407.6599573380903
 31
0.0000000000000001
  0
LINE
  5
353
330
34E
100
AcDbEntity
  8
____1
  6
Continuous
 62
     5
100
AcDbLine
 10
1089.424218690342
 20
-399.0863058406243
 30
0.0000000000000001
 11
1084.474218690342
 21
-407.6599573380903
 31
0.0000000000000001
  0
ENDBLK
  5
354
330
34E
100
AcDbEntity
  8
0
100
AcDbBlockEnd
  0
BLOCK
  5
38C
330
38B
100
AcDbEntity
  8
0
100
AcDbBlockBegin
  2
C3
 70
     0
 10
0.0
 20
0.0
 30
0.0000000000000001
  3
C3
  1

  0
LINE
  5
38D
330
38B
100
AcDbEntity
  8
____1
  6
Continuous
 62
     5
100
AcDbLine
 10
1201.847181315104
 20
-439.6053469550462
 30
0.0000000000000001
 11
1196.897181315105
 21
-448.1789984525122
 31
0.0000000000000001
  0
LINE
  5
38E
330
38B
100
AcDbEntity
  8
____1
  6
Continuous
 62
     5
100
AcDbLine
 10
1201.847181315104
 20
-439.6053469550462
 30
0.0000000000000001
 11
1206.797181315105
 21
-448.1789984525122
 31
0.0000000000000001
  0
LINE
  5
38F
330
38B
100
AcDbEntity
  8
____1
  6
Continuous
 62
     5
100
AcDbLine
 10
1196.897181315105
 20
-448.1789984525122
 30
0.0000000000000001
 11
1206.797181315105
 21
-448.1789984525122
 31
0.0000000000000001
  0
TEXT
  5
390
330
38B
100
AcDbEntity
  8
____1
  6
Continuous
 62
     7
100
AcDbText
 10
1200.383859495871
 20
-447.0790498243965
 30
0.0000000000000001
 40
5.853287887573241
  1
2
  7
STYLE1
100
AcDbText
  0
ENDBLK
  5
391
330
38B
100
AcDbEntity
  8
0
100
AcDbBlockEnd
  0
BLOCK
  5
393
330
392
100
AcDbEntity
  8
0
100
AcDbBlockBegin
  2
C4
 70
     0
 10
0.0
 20
0.0
 30
0.0000000000000001
  3
C4
  1

  0
ARC
  5
394
330
392
100
AcDbEntity
  8
0
  6
Continuous
 62
     5
100
AcDbCircle
 10
493.9330187042915
 20
-982.2802959331571
 30
0.0000000000000001
 40
999.9999999999996
100
AcDbArc
 50
51.00174570602805
 51
75.07556604755918
  0
ARC
  5
395
330
392
100
AcDbEntity
  8
0
  6
Continuous
 62
     5
100
AcDbCircle
 10
493.9330187042915
 20
-982.2802959331571
 30
0.0000000000000001
 40
1032.0
100
AcDbArc
 50
52.42613991158666
 51
70.39368596474244
  0
ARC
  5
396
330
392
100
AcDbEntity
  8
0
  6
Continuous
 62
     5
100
AcDbCircle
 10
752.2505370163599
 20
-13.11516050313497
 30
0.0000000000000001
 40
3.000000000000005
100
AcDbArc
 50
187.4622169762186
 51
255.0755660475591
  0
LINE
  5
397
330
392
100
AcDbEntity
  8
0
  6
Continuous
 62
     5
100
AcDbLine
 10
749.2759448571063
 20
-13.50477760505236
 30
0.0000000000000001
 11
749.2759448571063
 21
-10.11516050313497
 31
0.0000000000000001
  0
LINE
  5
398
330
392
100
AcDbEntity
  8
0
  6
Continuous
 62
     5
100
AcDbLine
 10
749.2759448571063
 20
-10.11516050313497
 30
0.0000000000000001
 11
840.2261740717138
 21
-10.11516050313497
 31
0.0000000000000001
  0
LINE
  5
399
330
392
100
AcDbEntity
  8
0
  6
Continuous
 62
     5
100
AcDbLine
 10
1123.229731131771
 20
-164.350196396549
 30
0.0000000000000001
 11
1123.229731131771
 21
-205.1151605031354
 31
0.0000000000000001
  0
ENDBLK
  5
39A
330
392
100
AcDbEntity
  8
0
100
AcDbBlockEnd
  0
BLOCK
  5
3DC
330
3DB
100
AcDbEntity
  8
0
100
AcDbBlockBegin
  2
C5
 70
     0
 10
0.0
 20
0.0
 30
0.0000000000000001
  3
C5
  1

  0
LINE
  5
3DD
330
3DB
100
AcDbEntity
  8
____1
  6
Continuous
 62
     5
100
AcDbLine
 10
1066.564720003981
 20
40.22377743015399
 30
0.0000000000000001
 11
1061.614720003981
 21
31.65012593268798
 31
0.0000000000000001
  0
LINE
  5
3DE
330
3DB
100
AcDbEntity
  8
____1
  6
Continuous
 62
     5
100
AcDbLine
 10
1066.564720003981
 20
40.22377743015399
 30
0.0000000000000001
 11
1071.514720003982
 21
31.65012593268798
 31
0.0000000000000001
  0
LINE
  5
3DF
330
3DB
100
AcDbEntity
  8
____1
  6
Continuous
 62
     5
100
AcDbLine
 10
1061.614720003981
 20
31.65012593268798
 30
0.0000000000000001
 11
1071.514720003982
 21
31.65012593268798
 31
0.0000000000000001
  0
TEXT
  5
3E0
330
3DB
100
AcDbEntity
  8
____1
  6
Continuous
 62
     7
100
AcDbText
 10
1065.101398184748
 20
32.75007456080385
 30
0.0000000000000001
 40
5.853287887573241
  1
2
  7
STYLE1
100
AcDbText
  0
ENDBLK
  5
3E1
330
3DB
100
AcDbEntity
  8
0
100
AcDbBlockEnd
  0
BLOCK
  5
C7B
330
C71
100
AcDbEntity
  8
0
100
AcDbBlockBegin
  2
A$C50AA07C9
 70
     0
 10
0.0
 20
0.0
 30
0.0
  3
A$C50AA07C9
  1

  0
TEXT
  5
C72
330
C71
100
AcDbEntity
  8
____1
  6
Continuous
 62
     0
100
AcDbText
 10
64.66523596280445
 20
2.52043694119996
 30
0.0
 40
4.93888874053955
  1
ブラック色を追加
  7
STYLE1
100
AcDbText
  0
LINE
  5
C73
330
C71
100
AcDbEntity
  8
____1
  6
Continuous
 62
     0
100
AcDbLine
 10
0.0
 20
0.0
 30
0.0
 11
179.9999999999991
 21
0.0
 31
0.0
  0
TEXT
  5
C74
330
C71
100
AcDbEntity
  8
____1
  6
Continuous
 62
     0
100
AcDbText
 10
23.77772102488894
 20
2.52043694119996
 30
0.0
 40
4.93888874053955
  1
2020.03.10
  7
STYLE1
100
AcDbText
  0
TEXT
  5
C75
330
C71
100
AcDbEntity
  8
____1
  6
Continuous
 62
     0
100
AcDbText
 10
7.968107408681134
 20
1.961532130122403
 30
0.0
 40
4.682630310058594
  1
4
  7
STYLE1
100
AcDbText
  0
LINE
  5
C76
330
C71
100
AcDbEntity
  8
____1
  6
Continuous
 62
     0
100
AcDbLine
 10
9.431429227914577
 20
9.435234999472545
 30
0.0
 11
14.38142922791462
 21
0.8615835020065354
 31
0.0
  0
LINE
  5
C77
330
C71
100
AcDbEntity
  8
____1
  6
Continuous
 62
     0
100
AcDbLine
 10
9.431429227914577
 20
9.435234999472545
 30
0.0
 11
4.481429227914532
 21
0.8615835020065354
 31
0.0
  0
LINE
  5
C78
330
C71
100
AcDbEntity
  8
____1
  6
Continuous
 62
     0
100
AcDbLine
 10
4.481429227914532
 20
0.8615835020065354
 30
0.0
 11
14.38142922791462
 21
0.8615835020065354
 31
0.0
  0
ENDBLK
  5
C7C
330
C71
100
AcDbEntity
  8
0
100
AcDbBlockEnd
  0
ENDSEC
  0
SECTION
  2
ENTITIES
  0
LWPOLYLINE
  5
8A6
330
318
100
AcDbEntity
  8
DEFPOINTS
100
AcDbPolyline
 90
        4
 70
     1
 43
0.0
 10
1267.458944734306
 20
770.6357336877888
 10
425.4639447343082
 20
770.6357336877888
 10
425.4639447343082
 20
175.2857336877887
 10
1267.458944734306
 20
175.2857336877887
  0
LINE
  5
8AB
330
318
100
AcDbEntity
  8
____1
  6
Continuous
 62
     0
100
AcDbLine
 10
1069.945373962223
 20
716.1473171897954
 30
0.0
 11
1079.845373962224
 21
716.1473171897954
 31
0.0
  0
LINE
  5
8AC
330
318
100
AcDbEntity
  8
____1
  6
Continuous
 62
     0
100
AcDbLine
 10
1074.895373962223
 20
724.7209686872614
 30
0.0
 11
1069.945373962223
 21
716.1473171897954
 31
0.0
  0
LINE
  5
8AD
330
318
100
AcDbEntity
  8
____1
  6
Continuous
 62
     0
100
AcDbLine
 10
1074.895373962223
 20
724.7209686872614
 30
0.0
 11
1079.845373962224
 21
716.1473171897954
 31
0.0
  0
TEXT
  5
8AE
330
318
100
AcDbEntity
  8
____1
  6
Continuous
 62
     0
100
AcDbText
 10
1073.43205214299
 20
717.2472658179113
 30
0.0
 40
4.682630310058594
  1
3
  7
STYLE1
100
AcDbText
  0
TEXT
  5
8AF
330
318
100
AcDbEntity
  8
____1
  6
Continuous
 62
     0
100
AcDbText
 10
1094.880611718866
 20
717.8061706289888
 30
0.0
 40
4.93888874053955
  1
H25.03
  7
STYLE1
100
AcDbText
  0
LINE
  5
8B0
330
318
100
AcDbEntity
  8
____1
  6
Continuous
 62
     0
100
AcDbLine
 10
1065.463944734309
 20
715.2857336877889
 30
0.0
 11
1245.463944734308
 21
715.2857336877889
 31
0.0
  0
TEXT
  5
8B1
330
318
100
AcDbEntity
  8
____1
  6
Continuous
 62
     0
100
AcDbText
 10
1130.129180697113
 20
717.8061706289888
 30
0.0
 40
4.93888874053955
  1
ﾈｼﾞ仕様変更（木ﾈｼﾞ ⇒ 皿ﾀｯﾋﾟﾝﾈｼﾞ）
  7
STYLE1
100
AcDbText
  0
TEXT
  5
8B2
330
318
100
AcDbEntity
  8
____1
  6
Continuous
 62
     0
100
AcDbText
 10
1073.43205214299
 20
727.2472658179112
 30
0.0
 40
4.682630310058594
  1
2
  7
STYLE1
100
AcDbText
  0
LINE
  5
8B3
330
318
100
AcDbEntity
  8
____1
  6
Continuous
 62
     0
100
AcDbLine
 10
1069.945373962223
 20
726.1473171897953
 30
0.0
 11
1079.845373962224
 21
726.1473171897953
 31
0.0
  0
LINE
  5
8B4
330
318
100
AcDbEntity
  8
____1
  6
Continuous
 62
     0
100
AcDbLine
 10
1074.895373962223
 20
734.7209686872613
 30
0.0
 11
1079.845373962224
 21
726.1473171897953
 31
0.0
  0
LINE
  5
8B5
330
318
100
AcDbEntity
  8
____1
  6
Continuous
 62
     0
100
AcDbLine
 10
1074.895373962223
 20
734.7209686872613
 30
0.0
 11
1069.945373962223
 21
726.1473171897953
 31
0.0
  0
LINE
  5
8B6
330
318
100
AcDbEntity
  8
____1
  6
Continuous
 62
     0
100
AcDbLine
 10
1074.895373962223
 20
744.7209686872612
 30
0.0
 11
1069.945373962224
 21
736.1473171897952
 31
0.0
  0
LINE
  5
8B7
330
318
100
AcDbEntity
  8
____1
  6
Continuous
 62
     0
100
AcDbLine
 10
1074.895373962223
 20
744.7209686872612
 30
0.0
 11
1079.845373962224
 21
736.1473171897952
 31
0.0
  0
LINE
  5
8B8
330
318
100
AcDbEntity
  8
____1
  6
Continuous
 62
     0
100
AcDbLine
 10
1069.945373962224
 20
736.1473171897952
 30
0.0
 11
1079.845373962224
 21
736.1473171897952
 31
0.0
  0
TEXT
  5
8B9
330
318
100
AcDbEntity
  8
____1
  6
Continuous
 62
     0
100
AcDbText
 10
1073.43205214299
 20
737.247265817911
 30
0.0
 40
4.682630310058594
  1
1
  7
STYLE1
100
AcDbText
  0
TEXT
  5
8C6
330
318
100
AcDbEntity
  8
____1
  6
Continuous
 62
     0
100
AcDbText
 10
1094.880611718866
 20
727.8061706289888
 30
0.0
 40
4.93888874053955
  1
H22.12
  7
STYLE1
100
AcDbText
  0
TEXT
  5
8C7
330
318
100
AcDbEntity
  8
____1
  6
Continuous
 62
     0
100
AcDbText
 10
1146.658391298029
 20
727.8061706289888
 30
0.0
 40
4.93888874053955
  1
品番変更　LY635→LY835
  7
STYLE1
100
AcDbText
  0
TEXT
  5
8C9
330
318
100
AcDbEntity
  8
____1
  6
Continuous
 62
     0
100
AcDbText
 10
1136.075057328913
 20
737.8061706289886
 30
0.0
 40
4.93888874053955
  1
色変更アイボリー → ホワイト
  7
STYLE1
100
AcDbText
  0
TEXT
  5
8CA
330
318
100
AcDbEntity
  8
____1
  6
Continuous
 62
     0
100
AcDbText
 10
1160.769501985285
 20
747.735321627663
 30
0.0
 40
4.93888874053955
  1
改　訂　内　容
  7
STYLE1
100
AcDbText
  0
LINE
  5
8CB
330
318
100
AcDbEntity
  8
____1
  6
Continuous
 62
     0
100
AcDbLine
 10
1125.463944734309
 20
705.2857336877892
 30
0.0
 11
1125.463944734309
 21
755.2857336877886
 31
0.0
  0
LINE
  5
8CC
330
318
100
AcDbEntity
  8
____1
  6
Continuous
 62
     0
100
AcDbLine
 10
1125.463944734309
 20
725.2857336877887
 30
0.0
 11
1125.463944734309
 21
755.2857336877886
 31
0.0
  0
LINE
  5
8CD
330
318
100
AcDbEntity
  8
____1
  6
Continuous
 62
     0
100
AcDbLine
 10
1085.463944734309
 20
705.2857336877892
 30
0.0
 11
1085.463944734309
 21
755.2857336877886
 31
0.0
  0
LINE
  5
8CE
330
318
100
AcDbEntity
  8
____1
  6
Continuous
 62
     0
100
AcDbLine
 10
1065.463944734309
 20
705.2857336877892
 30
0.0
 11
1065.463944734309
 21
755.2857336877886
 31
0.0
  0
LINE
  5
8CF
330
318
100
AcDbEntity
  8
____1
  6
Continuous
 62
     0
100
AcDbLine
 10
1074.895373962223
 20
754.6209686872611
 30
0.0
 11
1069.945373962224
 21
746.0473171897953
 31
0.0
  0
LINE
  5
8D0
330
318
100
AcDbEntity
  8
____1
  6
Continuous
 62
     0
100
AcDbLine
 10
1074.895373962223
 20
754.6209686872611
 30
0.0
 11
1079.845373962224
 21
746.0473171897953
 31
0.0
  0
LINE
  5
8D1
330
318
100
AcDbEntity
  8
____1
  6
Continuous
 62
     0
100
AcDbLine
 10
1069.945373962224
 20
746.0473171897953
 30
0.0
 11
1079.845373962224
 21
746.0473171897953
 31
0.0
  0
TEXT
  5
8D2
330
318
100
AcDbEntity
  8
____1
  6
Continuous
 62
     0
100
AcDbText
 10
1094.880611718867
 20
737.8061706289886
 30
0.0
 40
4.93888874053955
  1
H22.11
  7
STYLE1
100
AcDbText
  0
LINE
  5
8D3
330
318
100
AcDbEntity
  8
____1
  6
Continuous
 62
     0
100
AcDbLine
 10
1065.463944734309
 20
735.2857336877887
 30
0.0
 11
1245.463944734308
 21
735.2857336877887
 31
0.0
  0
LINE
  5
8D4
330
318
100
AcDbEntity
  8
____1
  6
Continuous
 62
     0
100
AcDbLine
 10
1065.463944734309
 20
745.2857336877887
 30
0.0
 11
1245.463944734308
 21
745.2857336877887
 31
0.0
  0
LINE
  5
8D5
330
318
100
AcDbEntity
  8
____1
  6
Continuous
 62
     0
100
AcDbLine
 10
1065.463944734309
 20
725.2857336877887
 30
0.0
 11
1245.463944734308
 21
725.2857336877887
 31
0.0
  0
TEXT
  5
8D6
330
318
100
AcDbEntity
  8
____1
  6
Continuous
 62
     0
100
AcDbText
 10
1094.880611718867
 20
747.735321627663
 30
0.0
 40
4.93888874053955
  1
改訂日
  7
STYLE1
100
AcDbText
  0
POLYLINE
  5
8D7
330
318
100
AcDbEntity
  8
____1
  6
Continuous
 62
     0
100
AcDb3dPolyline
 66
     1
 10
0.0
 20
0.0
 30
0.0
 70
     8
  0
VERTEX
  5
8D8
330
8D7
100
AcDbEntity
  8
____1
 62
     0
100
AcDbVertex
100
AcDb3dPolylineVertex
 10
1051.839724643257
 20
207.6088948354505
 30
0.0
 70
    32
  0
VERTEX
  5
8D9
330
8D7
100
AcDbEntity
  8
____1
 62
     0
100
AcDbVertex
100
AcDb3dPolylineVertex
 10
1053.218111471528
 20
206.3487288121457
 30
0.0
 70
    32
  0
VERTEX
  5
8DA
330
8D7
100
AcDbEntity
  8
____1
 62
     0
100
AcDbVertex
100
AcDb3dPolylineVertex
 10
1054.619035496338
 20
205.1302352584019
 30
0.0
 70
    32
  0
VERTEX
  5
8DB
330
8D7
100
AcDbEntity
  8
____1
 62
     0
100
AcDbVertex
100
AcDb3dPolylineVertex
 10
1056.065033914226
 20
203.99508664378
 30
0.0
 70
    32
  0
VERTEX
  5
8DC
330
8D7
100
AcDbEntity
  8
____1
 62
     0
100
AcDbVertex
100
AcDb3dPolylineVertex
 10
1057.57864392173
 20
202.9849554378412
 30
0.0
 70
    32
  0
VERTEX
  5
8DD
330
8D7
100
AcDbEntity
  8
____1
 62
     0
100
AcDbVertex
100
AcDb3dPolylineVertex
 10
1057.578643925647
 20
202.984955435489
 30
0.0
 70
    32
  0
SEQEND
  5
8DE
330
8D7
100
AcDbEntity
  8
____1
 62
     0
  0
LINE
  5
8DF
330
318
100
AcDbEntity
  8
____1
  6
Continuous
 62
     7
100
AcDbLine
 10
950.4639447343084
 20
228.2857336877888
 30
0.0
 11
1020.463944734308
 21
228.2857336877888
 31
0.0
  0
TEXT
  5
8E0
330
318
100
AcDbEntity
  8
____1
  6
Continuous
 62
     7
100
AcDbText
 10
945.463944734308
 20
231.239839720362
 30
0.0
 40
5.644444274902344
  1
 設計　　 岸本
  7
STYLE1
100
AcDbText
  0
TEXT
  5
8E1
330
318
100
AcDbEntity
  8
____1
  6
Continuous
 62
     7
100
AcDbText
 10
945.463944734308
 20
220.239839720362
 30
0.0
 40
5.644444274902344
  1
 製図　　 岸本
  7
STYLE1
100
AcDbText
  0
TEXT
  5
8E2
330
318
100
AcDbEntity
  8
____1
  6
Continuous
 62
     7
100
AcDbText
 10
947.5743079515622
 20
253.239839720362
 30
0.0
 40
5.644444274902344
  1
 日　　付
  7
STYLE1
100
AcDbText
  0
TEXT
  5
8E3
330
318
100
AcDbEntity
  8
____1
  6
Continuous
 62
     7
100
AcDbText
 10
1107.697288407948
 20
253.2386875672032
 30
0.0
 40
5.644444274902344
  1
型番
  7
STYLE1
100
AcDbText
  0
TEXT
  5
8E4
330
318
100
AcDbEntity
  8
____1
  6
Continuous
 62
     7
100
AcDbText
 10
1107.697288407948
 20
231.2386875672032
 30
0.0
 40
5.644444274902344
  1
品名
  7
STYLE1
100
AcDbText
  0
TEXT
  5
8E5
330
318
100
AcDbEntity
  8
____1
  6
Continuous
 62
     7
100
AcDbText
 10
1107.697288407948
 20
209.2386875672032
 30
0.0
 40
5.644444274902344
  1
図番
  7
STYLE1
100
AcDbText
  0
LINE
  5
8E6
330
318
100
AcDbEntity
  8
____1
  6
Continuous
 62
     5
100
AcDbLine
 10
445.4639447343082
 20
195.2857336877887
 30
0.0
 11
445.4639447343082
 21
755.2857336877886
 31
0.0
  0
ARC
  5
8E7
330
318
100
AcDbEntity
  8
____1
  6
Continuous
 62
     0
100
AcDbCircle
 10
1054.143724643257
 20
209.4217982625789
 30
0.0
 40
7.29600000000006
100
AcDbArc
 50
331.3992813832578
 51
358.4920422457636
  0
LINE
  5
8E8
330
318
100
AcDbEntity
  8
____1
  6
Continuous
 62
     0
100
AcDbLine
 10
1043.851361006894
 20
205.965798262579
 30
0.0
 11
1046.731361006894
 21
205.965798262579
 31
0.0
  0
ARC
  5
8E9
330
318
100
AcDbEntity
  8
____1
  6
Continuous
 62
     0
100
AcDbCircle
 10
1056.639724643257
 20
209.8057982625789
 30
0.0
 40
10.56000000000012
100
AcDbArc
 50
270.0
 51
302.5449588540466
  0
LINE
  5
8EA
330
318
100
AcDbEntity
  8
____1
  6
Continuous
 62
     0
100
AcDbLine
 10
1046.731361006894
 20
208.845798262579
 30
0.0
 11
1043.851361006894
 21
208.845798262579
 31
0.0
  0
LINE
  5
8EB
330
318
100
AcDbEntity
  8
____1
  6
Continuous
 62
     0
100
AcDbLine
 10
1043.851361006894
 20
208.845798262579
 30
0.0
 11
1043.851361006894
 21
209.8057982625789
 31
0.0
  0
LINE
  5
8EC
330
318
100
AcDbEntity
  8
____1
  6
Continuous
 62
     0
100
AcDbLine
 10
1073.377291327961
 20
209.4217982625789
 30
0.0
 11
1078.174731327961
 21
209.4217982625789
 31
0.0
  0
LINE
  5
8ED
330
318
100
AcDbEntity
  8
____1
  6
Continuous
 62
     0
100
AcDbLine
 10
1083.331665931135
 20
210.3985577322759
 30
0.0
 11
1084.897291327961
 21
212.685798262579
 31
0.0
  0
LINE
  5
8EE
330
318
100
AcDbEntity
  8
____1
  6
Continuous
 62
     0
100
AcDbLine
 10
1030.411361006894
 20
205.965798262579
 30
0.0
 11
1030.411361006894
 21
203.085798262579
 31
0.0
  0
LINE
  5
8EF
330
318
100
AcDbEntity
  8
____1
  6
Continuous
 62
     7
100
AcDbLine
 10
950.4639447343084
 20
250.2857336877887
 30
0.0
 11
980.4639447343085
 21
250.2857336877887
 31
0.0
  0
LINE
  5
8F0
330
318
100
AcDbEntity
  8
____1
  6
Continuous
 62
     7
100
AcDbLine
 10
990.4639447343084
 20
250.2857336877887
 30
0.0
 11
1020.463944734308
 21
250.2857336877887
 31
0.0
  0
LINE
  5
8F1
330
318
100
AcDbEntity
  8
____1
  6
Continuous
 62
     7
100
AcDbLine
 10
1030.463944734308
 20
250.2857336877887
 30
0.0
 11
1060.463944734308
 21
250.2857336877887
 31
0.0
  0
LINE
  5
8F2
330
318
100
AcDbEntity
  8
____1
  6
Continuous
 62
     7
100
AcDbLine
 10
1030.463944734308
 20
228.2857336877888
 30
0.0
 11
1060.463944734308
 21
228.2857336877888
 31
0.0
  0
LINE
  5
8F3
330
318
100
AcDbEntity
  8
____1
  6
Continuous
 62
     7
100
AcDbLine
 10
985.463944734308
 20
261.2857336877888
 30
0.0
 11
985.463944734308
 21
239.2857336877888
 31
0.0
  0
LINE
  5
8F4
330
318
100
AcDbEntity
  8
____1
  6
Continuous
 62
     0
100
AcDbLine
 10
1083.612742891566
 20
209.4217982625789
 30
0.0
 11
1083.331665931135
 21
210.3985577322759
 31
0.0
  0
LINE
  5
8F5
330
318
100
AcDbEntity
  8
____1
  6
Continuous
 62
     0
100
AcDbLine
 10
1069.119724643257
 20
212.685798262579
 30
0.0
 11
1051.839724643257
 21
212.685798262579
 31
0.0
  0
POLYLINE
  5
8F6
330
318
100
AcDbEntity
  8
____1
  6
Continuous
 62
     0
100
AcDb3dPolyline
 66
     1
 10
0.0
 20
0.0
 30
0.0
 70
     8
  0
VERTEX
  5
8F7
330
8F6
100
AcDbEntity
  8
____1
 62
     0
100
AcDbVertex
100
AcDb3dPolylineVertex
 10
1064.674189844464
 20
203.0406603045059
 30
0.0
 70
    32
  0
VERTEX
  5
8F8
330
8F6
100
AcDbEntity
  8
____1
 62
     0
100
AcDbVertex
100
AcDb3dPolylineVertex
 10
1065.755309935821
 20
202.7632222629939
 30
0.0
 70
    32
  0
VERTEX
  5
8F9
330
8F6
100
AcDbEntity
  8
____1
 62
     0
100
AcDbVertex
100
AcDb3dPolylineVertex
 10
1066.862370262899
 20
202.5275463909366
 30
0.0
 70
    32
  0
VERTEX
  5
8FA
330
8F6
100
AcDbEntity
  8
____1
 62
     0
100
AcDbVertex
100
AcDb3dPolylineVertex
 10
1069.119724643257
 20
202.125798262579
 30
0.0
 70
    32
  0
SEQEND
  5
8FB
330
8F6
100
AcDbEntity
  8
____1
 62
     0
  0
POLYLINE
  5
8FC
330
318
100
AcDbEntity
  8
____1
  6
Continuous
 62
     0
100
AcDb3dPolyline
 66
     1
 10
0.0
 20
0.0
 30
0.0
 70
     8
  0
VERTEX
  5
8FD
330
8FC
100
AcDbEntity
  8
____1
 62
     0
100
AcDbVertex
100
AcDb3dPolylineVertex
 10
1058.433608627354
 20
207.1412305331123
 30
0.0
 70
    32
  0
VERTEX
  5
8FE
330
8FC
100
AcDbEntity
  8
____1
 62
     0
100
AcDbVertex
100
AcDb3dPolylineVertex
 10
1059.243789576829
 20
206.2531067703271
 30
0.0
 70
    32
  0
VERTEX
  5
8FF
330
8FC
100
AcDbEntity
  8
____1
 62
     0
100
AcDbVertex
100
AcDb3dPolylineVertex
 10
1060.087500679166
 20
205.4189644725042
 30
0.0
 70
    32
  0
SEQEND
  5
900
330
8FC
100
AcDbEntity
  8
____1
 62
     0
  0
POLYLINE
  5
901
330
318
100
AcDbEntity
  8
____1
  6
Continuous
 62
     0
100
AcDb3dPolyline
 66
     1
 10
0.0
 20
0.0
 30
0.0
 70
     8
  0
VERTEX
  5
902
330
901
100
AcDbEntity
  8
____1
 62
     0
100
AcDbVertex
100
AcDb3dPolylineVertex
 10
1062.320595287929
 20
200.9040395195834
 30
0.0
 70
    32
  0
VERTEX
  5
903
330
901
100
AcDbEntity
  8
____1
 62
     0
100
AcDbVertex
100
AcDb3dPolylineVertex
 10
1063.981332007314
 20
200.417281787827
 30
0.0
 70
    32
  0
VERTEX
  5
904
330
901
100
AcDbEntity
  8
____1
 62
     0
100
AcDbVertex
100
AcDb3dPolylineVertex
 10
1065.675536400511
 20
199.9924075567894
 30
0.0
 70
    32
  0
VERTEX
  5
905
330
901
100
AcDbEntity
  8
____1
 62
     0
100
AcDbVertex
100
AcDb3dPolylineVertex
 10
1069.119724643257
 20
199.245798262579
 30
0.0
 70
    32
  0
SEQEND
  5
906
330
901
100
AcDbEntity
  8
____1
 62
     0
  0
LINE
  5
907
330
318
100
AcDbEntity
  8
____1
  6
Continuous
 62
     0
100
AcDbLine
 10
1067.199724643257
 20
209.8057982625789
 30
0.0
 11
1069.119724643257
 21
212.685798262579
 31
0.0
  0
LINE
  5
908
330
318
100
AcDbEntity
  8
____1
  6
Continuous
 62
     0
100
AcDbLine
 10
1051.839724643257
 20
202.125798262579
 30
0.0
 11
1051.839724643257
 21
199.245798262579
 31
0.0
  0
LINE
  5
909
330
318
100
AcDbEntity
  8
____1
  6
Continuous
 62
     0
100
AcDbLine
 10
1051.839724643257
 20
202.125798262579
 30
0.0
 11
1054.143724643257
 21
202.125798262579
 31
0.0
  0
LINE
  5
90A
330
318
100
AcDbEntity
  8
____1
  6
Continuous
 62
     0
100
AcDbLine
 10
1077.217291327961
 20
212.685798262579
 30
0.0
 11
1084.897291327961
 21
212.685798262579
 31
0.0
  0
LINE
  5
90B
330
318
100
AcDbEntity
  8
____1
  6
Continuous
 62
     0
100
AcDbLine
 10
1030.411361006894
 20
208.845798262579
 30
0.0
 11
1028.201241688711
 21
208.845798262579
 31
0.0
  0
LINE
  5
90C
330
318
100
AcDbEntity
  8
____1
  6
Continuous
 62
     0
100
AcDbLine
 10
1090.657291327961
 20
204.4297982625789
 30
0.0
 11
1090.657291327961
 21
200.973798262579
 31
0.0
  0
LINE
  5
90D
330
318
100
AcDbEntity
  8
____1
  6
Continuous
 62
     0
100
AcDbLine
 10
1069.119724643257
 20
202.125798262579
 30
0.0
 11
1069.119724643257
 21
199.245798262579
 31
0.0
  0
LINE
  5
90E
330
318
100
AcDbEntity
  8
____1
  6
Continuous
 62
     0
100
AcDbLine
 10
1030.411361006894
 20
205.965798262579
 30
0.0
 11
1030.121241688711
 21
205.965798262579
 31
0.0
  0
LINE
  5
90F
330
318
100
AcDbEntity
  8
____1
  6
Continuous
 62
     0
100
AcDbLine
 10
1030.411361006894
 20
202.125798262579
 30
0.0
 11
1030.411361006894
 21
199.245798262579
 31
0.0
  0
LINE
  5
910
330
318
100
AcDbEntity
  8
____1
  6
Continuous
 62
     0
100
AcDbLine
 10
1051.839724643257
 20
199.245798262579
 30
0.0
 11
1051.839724643257
 21
202.125798262579
 31
0.0
  0
LINE
  5
911
330
318
100
AcDbEntity
  8
____1
  6
Continuous
 62
     0
100
AcDbLine
 10
1035.211361006894
 20
205.965798262579
 30
0.0
 11
1039.051361006894
 21
205.965798262579
 31
0.0
  0
LINE
  5
912
330
318
100
AcDbEntity
  8
____1
  6
Continuous
 62
     0
100
AcDbLine
 10
1086.817291327961
 20
198.2857982625789
 30
0.0
 11
1086.043779636417
 21
200.973798262579
 31
0.0
  0
LINE
  5
913
330
318
100
AcDbEntity
  8
____1
  6
Continuous
 62
     0
100
AcDbLine
 10
1028.201241688711
 20
205.965798262579
 30
0.0
 11
1030.121241688711
 21
205.965798262579
 31
0.0
  0
LINE
  5
914
330
318
100
AcDbEntity
  8
____1
  6
Continuous
 62
     0
100
AcDbLine
 10
1073.377291327961
 20
204.4297982625789
 30
0.0
 11
1079.639051327961
 21
204.4297982625789
 31
0.0
  0
LINE
  5
915
330
318
100
AcDbEntity
  8
____1
  6
Continuous
 62
     5
100
AcDbLine
 10
945.463944734308
 20
195.2857336877887
 30
0.0
 11
445.4639447343082
 21
195.2857336877887
 31
0.0
  0
LINE
  5
916
330
318
100
AcDbEntity
  8
____1
  6
Continuous
 62
     5
100
AcDbLine
 10
1245.463944734308
 20
755.2857336877886
 30
0.0
 11
445.4639447343081
 21
755.2857336877886
 31
0.0
  0
LINE
  5
917
330
318
100
AcDbEntity
  8
____1
  6
Continuous
 62
     5
100
AcDbLine
 10
1245.463944734308
 20
261.2857336877888
 30
0.0
 11
1245.463944734308
 21
755.2857336877886
 31
0.0
  0
LINE
  5
918
330
318
100
AcDbEntity
  8
____1
  6
Continuous
 62
     0
100
AcDbLine
 10
1085.049264604432
 20
204.4297982625789
 30
0.0
 11
1084.607257923551
 21
205.965798262579
 31
0.0
  0
LINE
  5
919
330
318
100
AcDbEntity
  8
____1
  6
Continuous
 62
     0
100
AcDbLine
 10
1081.441291327961
 20
198.2857982625789
 30
0.0
 11
1080.652811327962
 21
200.973798262579
 31
0.0
  0
LINE
  5
91A
330
318
100
AcDbEntity
  8
____1
  6
Continuous
 62
     0
100
AcDbLine
 10
1036.171361006894
 20
202.125798262579
 30
0.0
 11
1030.411361006894
 21
202.125798262579
 31
0.0
  0
LINE
  5
91B
330
318
100
AcDbEntity
  8
____1
  6
Continuous
 62
     0
100
AcDbLine
 10
1051.839724643257
 20
209.2297982625789
 30
0.0
 11
1061.439724643257
 21
209.2297982625789
 31
0.0
  0
LINE
  5
91C
330
318
100
AcDbEntity
  8
____1
  6
Continuous
 62
     0
100
AcDbLine
 10
1090.657291327961
 20
209.4217982625789
 30
0.0
 11
1090.657291327961
 21
205.965798262579
 31
0.0
  0
LINE
  5
91D
330
318
100
AcDbEntity
  8
____1
  6
Continuous
 62
     0
100
AcDbLine
 10
1073.377291327961
 20
205.965798262579
 30
0.0
 11
1079.188491327961
 21
205.965798262579
 31
0.0
  0
LINE
  5
91E
330
318
100
AcDbEntity
  8
____1
  6
Continuous
 62
     0
100
AcDbLine
 10
1073.377291327961
 20
204.4297982625789
 30
0.0
 11
1073.377291327961
 21
200.973798262579
 31
0.0
  0
LINE
  5
91F
330
318
100
AcDbEntity
  8
____1
  6
Continuous
 62
     0
100
AcDbLine
 10
1035.211361006894
 20
203.085798262579
 30
0.0
 11
1035.211361006894
 21
205.965798262579
 31
0.0
  0
LINE
  5
920
330
318
100
AcDbEntity
  8
____1
  6
Continuous
 62
     0
100
AcDbLine
 10
1039.051361006894
 20
208.845798262579
 30
0.0
 11
1035.211361006894
 21
208.845798262579
 31
0.0
  0
LINE
  5
921
330
318
100
AcDbEntity
  8
____1
  6
Continuous
 62
     0
100
AcDbLine
 10
1038.091361006894
 20
212.685798262579
 30
0.0
 11
1030.411361006894
 21
212.685798262579
 31
0.0
  0
LINE
  5
922
330
318
100
AcDbEntity
  8
____1
  6
Continuous
 62
     0
100
AcDbLine
 10
1035.211361006894
 20
209.8057982625789
 30
0.0
 11
1038.091361006894
 21
212.685798262579
 31
0.0
  0
LINE
  5
923
330
318
100
AcDbEntity
  8
____1
  6
Continuous
 62
     0
100
AcDbLine
 10
1030.411361006894
 20
212.685798262579
 30
0.0
 11
1030.411361006894
 21
208.845798262579
 31
0.0
  0
LINE
  5
924
330
318
100
AcDbEntity
  8
____1
  6
Continuous
 62
     0
100
AcDbLine
 10
1086.043779636417
 20
200.973798262579
 30
0.0
 11
1090.657291327961
 21
200.973798262579
 31
0.0
  0
LINE
  5
925
330
318
100
AcDbEntity
  8
____1
  6
Continuous
 62
     0
100
AcDbLine
 10
1078.174731327961
 20
209.4217982625789
 30
0.0
 11
1077.217291327961
 21
212.685798262579
 31
0.0
  0
LINE
  5
926
330
318
100
AcDbEntity
  8
____1
  6
Continuous
 62
     0
100
AcDbLine
 10
1083.612742891566
 20
209.4217982625789
 30
0.0
 11
1090.657291327961
 21
209.4217982625789
 31
0.0
  0
LINE
  5
927
330
318
100
AcDbEntity
  8
____1
  6
Continuous
 62
     7
100
AcDbLine
 10
1025.463944734308
 20
239.2857336877888
 30
0.0
 11
1025.463944734308
 21
217.2857336877888
 31
0.0
  0
LINE
  5
928
330
318
100
AcDbEntity
  8
____1
  6
Continuous
 62
     7
100
AcDbLine
 10
945.463944734308
 20
261.2857336877888
 30
0.0
 11
945.463944734308
 21
195.2857336877887
 31
0.0
  0
TEXT
  5
92C
330
318
100
AcDbEntity
  8
____1
  6
Continuous
 62
     7
100
AcDbText
 10
1136.152952237705
 20
225.2579567901324
 30
0.0
 40
6.773332977294922
  1
カウンターブラケット
  7
STYLE1
100
AcDbText
  0
LINE
  5
92D
330
318
100
AcDbEntity
  8
____1
  6
Continuous
 62
     0
100
AcDbLine
 10
1030.411361006894
 20
203.085798262579
 30
0.0
 11
1035.211361006894
 21
203.085798262579
 31
0.0
  0
LINE
  5
92E
330
318
100
AcDbEntity
  8
____1
  6
Continuous
 62
     0
100
AcDbLine
 10
1043.851361006894
 20
209.8057982625789
 30
0.0
 11
1046.731361006894
 21
212.685798262579
 31
0.0
  0
LINE
  5
92F
330
318
100
AcDbEntity
  8
____1
  6
Continuous
 62
     0
100
AcDbLine
 10
1079.639051327961
 20
204.4297982625789
 30
0.0
 11
1079.188491327961
 21
205.965798262579
 31
0.0
  0
LINE
  5
930
330
318
100
AcDbEntity
  8
____1
  6
Continuous
 62
     0
100
AcDbLine
 10
1035.211361006894
 20
208.845798262579
 30
0.0
 11
1035.211361006894
 21
209.8057982625789
 31
0.0
  0
LINE
  5
931
330
318
100
AcDbEntity
  8
____1
  6
Continuous
 62
     0
100
AcDbLine
 10
1065.016145799265
 20
203.3754663413497
 30
0.0
 11
1064.674189844464
 21
203.0406603045059
 31
0.0
  0
LINE
  5
932
330
318
100
AcDbEntity
  8
____1
  6
Continuous
 62
     0
100
AcDbLine
 10
1067.199724643257
 20
209.8057982625789
 30
0.0
 11
1069.119724643257
 21
212.685798262579
 31
0.0
  0
LINE
  5
933
330
318
100
AcDbEntity
  8
____1
  6
Continuous
 62
     0
100
AcDbLine
 10
1084.607257923551
 20
205.965798262579
 30
0.0
 11
1090.657291327961
 21
205.965798262579
 31
0.0
  0
LINE
  5
934
330
318
100
AcDbEntity
  8
____1
  6
Continuous
 62
     0
100
AcDbLine
 10
1051.839724643257
 20
199.245798262579
 30
0.0
 11
1056.639724643257
 21
199.245798262579
 31
0.0
  0
LINE
  5
935
330
318
100
AcDbEntity
  8
____1
  6
Continuous
 62
     0
100
AcDbLine
 10
1039.051361006894
 20
212.685798262579
 30
0.0
 11
1039.051361006894
 21
208.845798262579
 31
0.0
  0
LINE
  5
936
330
318
100
AcDbEntity
  8
____1
  6
Continuous
 62
     5
100
AcDbLine
 10
945.463944734308
 20
195.2857336877887
 30
0.0
 11
1245.463944734308
 21
195.2857336877887
 31
0.0
  0
LINE
  5
937
330
318
100
AcDbEntity
  8
____1
  6
Continuous
 62
     0
100
AcDbLine
 10
1060.549444627295
 20
205.9291821247678
 30
0.0
 11
1060.087500679166
 21
205.4189644725043
 31
0.0
  0
LINE
  5
938
330
318
100
AcDbEntity
  8
____1
  6
Continuous
 62
     0
100
AcDbLine
 10
1051.839724643257
 20
208.2273465490147
 30
0.0
 11
1059.519724643257
 21
208.2273465490147
 31
0.0
  0
ARC
  5
939
330
318
100
AcDbEntity
  8
____1
  6
Continuous
 62
     0
100
AcDbCircle
 10
1054.143724643257
 20
209.4217982625789
 30
0.0
 40
7.295999999999981
100
AcDbArc
 50
270.0
 51
298.0859048152069
  0
LINE
  5
93A
330
318
100
AcDbEntity
  8
____1
  6
Continuous
 62
     0
100
AcDbLine
 10
1059.519724643257
 20
208.2273465490147
 30
0.0
 11
1058.433608627354
 21
207.1412305331123
 31
0.0
  0
LINE
  5
93B
330
318
100
AcDbEntity
  8
____1
  6
Continuous
 62
     0
100
AcDbLine
 10
1051.839724643257
 20
207.6088948354505
 30
0.0
 11
1051.839724643257
 21
208.2273465490147
 31
0.0
  0
LINE
  5
93C
330
318
100
AcDbEntity
  8
____1
  6
Continuous
 62
     0
100
AcDbLine
 10
1028.201241688711
 20
208.845798262579
 30
0.0
 11
1028.201241688711
 21
205.965798262579
 31
0.0
  0
LINE
  5
93D
330
318
100
AcDbEntity
  8
____1
  6
Continuous
 62
     0
100
AcDbLine
 10
1046.731361006894
 20
208.845798262579
 30
0.0
 11
1046.731361006894
 21
205.965798262579
 31
0.0
  0
LINE
  5
93E
330
318
100
AcDbEntity
  8
____1
  6
Continuous
 62
     0
100
AcDbLine
 10
1046.731361006894
 20
212.685798262579
 30
0.0
 11
1039.051361006894
 21
212.685798262579
 31
0.0
  0
LINE
  5
93F
330
318
100
AcDbEntity
  8
____1
  6
Continuous
 62
     0
100
AcDbLine
 10
1051.839724643257
 20
212.685798262579
 30
0.0
 11
1051.839724643257
 21
209.2297982625789
 31
0.0
  0
LINE
  5
940
330
318
100
AcDbEntity
  8
____1
  6
Continuous
 62
     5
100
AcDbLine
 10
1245.463944734308
 20
195.2857336877887
 30
0.0
 11
1245.463944734308
 21
261.2857336877888
 31
0.0
  0
ARC
  5
941
330
318
100
AcDbEntity
  8
____1
  6
Continuous
 62
     0
100
AcDbCircle
 10
1038.091361006894
 20
205.0057982625789
 30
0.0
 40
5.76
100
AcDbArc
 50
270.0
 51
0.0
  0
LINE
  5
942
330
318
100
AcDbEntity
  8
____1
  6
Continuous
 62
     0
100
AcDbLine
 10
1085.049264604432
 20
204.4297982625789
 30
0.0
 11
1090.657291327961
 21
204.4297982625789
 31
0.0
  0
ARC
  5
943
330
318
100
AcDbEntity
  8
____1
  6
Continuous
 62
     0
100
AcDbCircle
 10
1056.639724643257
 20
209.8057982625789
 30
0.0
 40
10.56
100
AcDbArc
 50
322.4876119796974
 51
0.0
  0
LINE
  5
944
330
318
100
AcDbEntity
  8
____1
  6
Continuous
 62
     0
100
AcDbLine
 10
1030.411361006894
 20
199.245798262579
 30
0.0
 11
1038.091361006894
 21
199.245798262579
 31
0.0
  0
LINE
  5
945
330
318
100
AcDbEntity
  8
____1
  6
Continuous
 62
     0
100
AcDbLine
 10
1073.377291327961
 20
200.973798262579
 30
0.0
 11
1080.652811327962
 21
200.973798262579
 31
0.0
  0
ARC
  5
946
330
318
100
AcDbEntity
  8
____1
  6
Continuous
 62
     0
100
AcDbCircle
 10
1036.171361006894
 20
205.0057982625789
 30
0.0
 40
2.88
100
AcDbArc
 50
270.0
 51
0.0
  0
LINE
  5
947
330
318
100
AcDbEntity
  8
____1
  6
Continuous
 62
     0
100
AcDbLine
 10
1043.851361006894
 20
205.0057982625789
 30
0.0
 11
1043.851361006894
 21
205.965798262579
 31
0.0
  0
LINE
  5
948
330
318
100
AcDbEntity
  8
____1
  6
Continuous
 62
     7
100
AcDbLine
 10
1245.463944734308
 20
261.2857336877888
 30
0.0
 11
945.463944734308
 21
261.2857336877888
 31
0.0
  0
LINE
  5
949
330
318
100
AcDbEntity
  8
____1
  6
Continuous
 62
     7
100
AcDbLine
 10
1105.463944734308
 20
261.2857336877888
 30
0.0
 11
1105.463944734308
 21
195.2857336877887
 31
0.0
  0
LINE
  5
94A
330
318
100
AcDbEntity
  8
____1
  6
Continuous
 62
     7
100
AcDbLine
 10
1065.463944734308
 20
261.2857336877888
 30
0.0
 11
1065.463944734308
 21
217.2857336877888
 31
0.0
  0
LINE
  5
94B
330
318
100
AcDbEntity
  8
____1
  6
Continuous
 62
     7
100
AcDbLine
 10
1025.463944734308
 20
261.2857336877888
 30
0.0
 11
1025.463944734308
 21
239.2857336877888
 31
0.0
  0
LINE
  5
94C
330
318
100
AcDbEntity
  8
____1
  6
Continuous
 62
     7
100
AcDbLine
 10
945.463944734308
 20
217.2857336877888
 30
0.0
 11
1245.463944734308
 21
217.2857336877888
 31
0.0
  0
TEXT
  5
94D
330
318
100
AcDbEntity
  8
____1
  6
Continuous
 62
     7
100
AcDbText
 10
969.4828032844455
 20
200.4499728225514
 30
0.0
 40
10.15999984741211
  1
株式会社
  7
STYLE1
100
AcDbText
  0
LINE
  5
94E
330
318
100
AcDbEntity
  8
____1
  6
Continuous
 62
     0
100
AcDbLine
 10
1073.377291327961
 20
209.4217982625789
 30
0.0
 11
1073.377291327961
 21
205.965798262579
 31
0.0
  0
TEXT
  5
94F
330
318
100
AcDbEntity
  8
____1
  6
Continuous
 62
     7
100
AcDbText
 10
1067.574307951562
 20
253.239839720362
 30
0.0
 40
5.644444274902344
  1
 検　　印
  7
STYLE1
100
AcDbText
  0
LINE
  5
950
330
318
100
AcDbEntity
  8
____1
  6
Continuous
 62
     7
100
AcDbLine
 10
1065.463944734308
 20
250.2857336877887
 30
0.0
 11
1105.463944734308
 21
250.2857336877887
 31
0.0
  0
LINE
  5
951
330
318
100
AcDbEntity
  8
____1
  6
Continuous
 62
     7
100
AcDbLine
 10
1105.463944734308
 20
239.2857336877888
 30
0.0
 11
1245.463944734308
 21
239.2857336877888
 31
0.0
  0
LINE
  5
952
330
318
100
AcDbEntity
  8
____1
  6
Continuous
 62
     7
100
AcDbLine
 10
945.463944734308
 20
239.2857336877888
 30
0.0
 11
1065.463944734308
 21
239.2857336877888
 31
0.0
  0
TEXT
  5
953
330
318
100
AcDbEntity
  8
____1
  6
Continuous
 62
     7
100
AcDbText
 10
1027.574307951562
 20
231.239839720362
 30
0.0
 40
5.644444274902344
  1
 尺　　度
  7
STYLE1
100
AcDbText
  0
TEXT
  5
954
330
318
100
AcDbEntity
  8
____1
  6
Continuous
 62
     7
100
AcDbText
 10
1038.40838939068
 20
220.2255050329668
 30
0.0
 40
5.644444274902344
  1
1：2
  7
STYLE1
100
AcDbText
  0
TEXT
  5
955
330
318
100
AcDbEntity
  8
____1
  6
Continuous
 62
     7
100
AcDbText
 10
1027.574307951562
 20
253.239839720362
 30
0.0
 40
5.644444274902344
  1
 板　　厚
  7
STYLE1
100
AcDbText
  0
TEXT
  5
956
330
318
100
AcDbEntity
  8
____1
  6
Continuous
 62
     7
100
AcDbText
 10
987.5743079515622
 20
253.239839720362
 30
0.0
 40
5.644444274902344
  1
 材　　質
  7
STYLE1
100
AcDbText
  0
TEXT
  5
957
330
318
100
AcDbEntity
  8
____1
  6
Continuous
 62
     7
100
AcDbText
 10
1038.40838939068
 20
242.2255050329667
 30
0.0
 40
5.644444274902344
  1
4.5t
  7
STYLE1
100
AcDbText
  0
TEXT
  5
958
330
318
100
AcDbEntity
  8
____1
  6
Continuous
 62
     7
100
AcDbText
 10
1001.93616610882
 20
242.2255050329667
 30
0.0
 40
5.644444274902344
  1
鉄
  7
STYLE1
100
AcDbText
  0
TEXT
  5
959
330
318
100
AcDbEntity
  8
____1
  6
Continuous
 62
     7
100
AcDbText
 10
956.644500077936
 20
242.2255050329667
 30
0.0
 40
5.644444274902344
  1
H14.5
  7
STYLE1
100
AcDbText
  0
LINE
  5
95A
330
318
100
AcDbEntity
  8
____1
  6
Continuous
 62
     0
100
AcDbLine
 10
1086.817291327961
 20
198.2857982625789
 30
0.0
 11
1081.441291327961
 21
198.2857982625789
 31
0.0
  0
LINE
  5
95B
330
318
100
AcDbEntity
  8
____1
  6
Continuous
 62
     0
100
AcDbLine
 10
1039.051361006894
 20
205.965798262579
 30
0.0
 11
1039.051361006894
 21
205.0057982625789
 31
0.0
  0
TEXT
  5
AA2
330
318
100
AcDbEntity
  8
寸法線_1
  6
Continuous
 62
     7
100
AcDbText
 10
863.1298302232226
 20
690.7441261757953
 30
0.0000000000000001
 40
7.055555343627929
  1
500（天板側）
  7
STYLE1
100
AcDbText
  0
LINE
  5
AA3
330
318
100
AcDbEntity
  8
寸法線_1
  6
Continuous
 62
     7
100
AcDbLine
 10
1136.060385090013
 20
688.7151910215163
 30
0.0000000000000001
 11
886.0603850900131
 21
688.7151910215163
 31
0.0000000000000001
  0
SOLID
  5
AA4
330
318
100
AcDbEntity
  8
寸法線_1
  6
Continuous
 62
     7
100
AcDbTrace
 10
1131.560385090013
 20
688.7151910215163
 30
0.0000000000000001
 11
1136.060385090013
 21
688.7151910215163
 31
0.0000000000000001
 12
1130.060385090013
 22
690.2151910215163
 32
0.0000000000000001
 13
1130.060385090013
 23
690.2151910215163
 33
0.0000000000000001
  0
SOLID
  5
AA5
330
318
100
AcDbEntity
  8
寸法線_1
  6
Continuous
 62
     7
100
AcDbTrace
 10
1130.060385090013
 20
687.2151910215164
 30
0.0000000000000001
 11
1130.060385090013
 21
687.2151910215164
 31
0.0000000000000001
 12
1131.560385090013
 22
688.7151910215163
 32
0.0000000000000001
 13
1136.060385090013
 23
688.7151910215163
 33
0.0000000000000001
  0
LINE
  5
AA6
330
318
100
AcDbEntity
  8
寸法線_1
  6
Continuous
 62
     7
100
AcDbLine
 10
636.0603850900136
 20
688.7151910215163
 30
0.0000000000000001
 11
886.0603850900131
 21
688.7151910215163
 31
0.0000000000000001
  0
SOLID
  5
AA7
330
318
100
AcDbEntity
  8
寸法線_1
  6
Continuous
 62
     7
100
AcDbTrace
 10
636.0603850900136
 20
688.7151910215163
 30
0.0000000000000001
 11
640.5603850900136
 21
688.7151910215163
 31
0.0000000000000001
 12
642.0603850900135
 22
690.2151910215163
 32
0.0000000000000001
 13
642.0603850900135
 23
690.2151910215163
 33
0.0000000000000001
  0
SOLID
  5
AA8
330
318
100
AcDbEntity
  8
寸法線_1
  6
Continuous
 62
     7
100
AcDbTrace
 10
642.0603850900135
 20
687.2151910215164
 30
0.0000000000000001
 11
642.0603850900135
 21
687.2151910215164
 31
0.0000000000000001
 12
636.0603850900136
 22
688.7151910215163
 32
0.0000000000000001
 13
640.5603850900136
 23
688.7151910215163
 33
0.0000000000000001
  0
LINE
  5
AA9
330
318
100
AcDbEntity
  8
寸法線_1
  6
Continuous
 62
     7
100
AcDbLine
 10
636.0603850900136
 20
665.5873596199442
 30
0.0000000000000001
 11
636.0603850900136
 21
689.2151910215163
 31
0.0000000000000001
  0
LINE
  5
AAA
330
318
100
AcDbEntity
  8
寸法線_1
  6
Continuous
 62
     7
100
AcDbLine
 10
1136.060385090013
 20
661.0873596199442
 30
0.0000000000000001
 11
1136.060385090013
 21
689.2151910215163
 31
0.0000000000000001
  0
LINE
  5
AAB
330
318
100
AcDbEntity
  8
0
  6
Continuous
 62
     5
100
AcDbLine
 10
1131.560385090014
 20
505.8523237265299
 30
-0.0000000000000001
 11
1131.560385090014
 21
465.0873596199434
 31
-0.0000000000000001
  0
LINE
  5
AAC
330
318
100
AcDbEntity
  8
0
  6
Continuous
 62
     5
100
AcDbLine
 10
757.6065988153486
 20
660.087359619944
 30
-0.0000000000000001
 11
848.5568280299562
 21
660.087359619944
 31
-0.0000000000000001
  0
LINE
  5
AAD
330
318
100
AcDbEntity
  8
0
  6
Continuous
 62
     5
100
AcDbLine
 10
757.6065988153486
 20
656.6977425180265
 30
-0.0000000000000001
 11
757.6065988153486
 21
660.087359619944
 31
-0.0000000000000001
  0
ARC
  5
AAE
330
318
100
AcDbEntity
  8
0
  6
Continuous
 62
     5
100
AcDbCircle
 10
760.5811909746023
 20
657.0873596199439
 30
-0.0000000000000001
 40
3.000000000000005
100
AcDbArc
 50
187.4622169762186
 51
255.0755660475591
  0
ARC
  5
AAF
330
318
100
AcDbEntity
  8
0
  6
Continuous
 62
     5
100
AcDbCircle
 10
502.2636726625338
 20
-312.0777758100782
 30
-0.0000000000000001
 40
1032.0
100
AcDbArc
 50
52.42613991158665
 51
70.39368596474246
  0
ARC
  5
AB0
330
318
100
AcDbEntity
  8
0
  6
Continuous
 62
     5
100
AcDbCircle
 10
502.2636726625338
 20
-312.0777758100782
 30
-0.0000000000000001
 40
999.9999999999996
100
AcDbArc
 50
51.00174570602806
 51
75.07556604755918
  0
TEXT
  5
AB1
330
318
100
AcDbEntity
  8
寸法線_1
  6
Continuous
 62
     7
100
AcDbText
 10
1168.99948328869
 20
520.1845824249672
 30
0.0000000000000001
 40
7.055555343627929
  1
250（壁側）
 50
90.0
  7
STYLE1
100
AcDbText
  0
LINE
  5
AB2
330
318
100
AcDbEntity
  8
寸法線_1
  6
Continuous
 62
     7
100
AcDbLine
 10
1171.028418442969
 20
414.587359619944
 30
0.0000000000000001
 11
1171.028418442969
 21
539.587359619944
 31
0.0000000000000001
  0
SOLID
  5
AB3
330
318
100
AcDbEntity
  8
寸法線_1
  6
Continuous
 62
     7
100
AcDbTrace
 10
1171.028418442969
 20
419.087359619944
 30
0.0000000000000001
 11
1172.153418442969
 21
419.087359619944
 31
0.0000000000000001
 12
1172.528418442969
 22
420.5873596199441
 32
0.0000000000000001
 13
1172.528418442969
 23
420.5873596199441
 33
0.0000000000000001
  0
SOLID
  5
AB4
330
318
100
AcDbEntity
  8
寸法線_1
  6
Continuous
 62
     7
100
AcDbTrace
 10
1169.903418442969
 20
419.087359619944
 30
0.0000000000000001
 11
1171.028418442969
 21
419.087359619944
 31
0.0000000000000001
 12
1169.528418442969
 22
420.5873596199441
 32
0.0000000000000001
 13
1169.528418442969
 23
420.5873596199441
 33
0.0000000000000001
  0
SOLID
  5
AB5
330
318
100
AcDbEntity
  8
寸法線_1
  6
Continuous
 62
     7
100
AcDbTrace
 10
1171.028418442969
 20
414.587359619944
 30
0.0000000000000001
 11
1171.028418442969
 21
414.587359619944
 31
0.0000000000000001
 12
1169.903418442969
 22
419.087359619944
 32
0.0000000000000001
 13
1172.153418442969
 23
419.087359619944
 33
0.0000000000000001
  0
LINE
  5
AB6
330
318
100
AcDbEntity
  8
寸法線_1
  6
Continuous
 62
     7
100
AcDbLine
 10
1171.028418442969
 20
664.5873596199442
 30
0.0000000000000001
 11
1171.028418442969
 21
539.587359619944
 31
0.0000000000000001
  0
SOLID
  5
AB7
330
318
100
AcDbEntity
  8
寸法線_1
  6
Continuous
 62
     7
100
AcDbTrace
 10
1169.903418442969
 20
660.0873596199441
 30
0.0000000000000001
 11
1172.153418442969
 21
660.0873596199441
 31
0.0000000000000001
 12
1171.028418442969
 22
664.5873596199442
 32
0.0000000000000001
 13
1171.028418442969
 23
664.5873596199442
 33
0.0000000000000001
  0
SOLID
  5
AB8
330
318
100
AcDbEntity
  8
寸法線_1
  6
Continuous
 62
     7
100
AcDbTrace
 10
1172.528418442969
 20
658.5873596199442
 30
0.0000000000000001
 11
1172.528418442969
 21
658.5873596199442
 31
0.0000000000000001
 12
1171.028418442969
 22
660.0873596199441
 32
0.0000000000000001
 13
1172.153418442969
 23
660.0873596199441
 33
0.0000000000000001
  0
SOLID
  5
AB9
330
318
100
AcDbEntity
  8
寸法線_1
  6
Continuous
 62
     7
100
AcDbTrace
 10
1169.528418442969
 20
658.5873596199442
 30
0.0000000000000001
 11
1169.528418442969
 21
658.5873596199442
 31
0.0000000000000001
 12
1169.903418442969
 22
660.0873596199441
 32
0.0000000000000001
 13
1171.028418442969
 23
660.0873596199441
 33
0.0000000000000001
  0
LINE
  5
ABA
330
318
100
AcDbEntity
  8
寸法線_1
  6
Continuous
 62
     7
100
AcDbLine
 10
1132.560385090013
 20
664.5873596199442
 30
0.0000000000000001
 11
1171.528418442969
 21
664.5873596199442
 31
0.0000000000000001
  0
LINE
  5
ABB
330
318
100
AcDbEntity
  8
寸法線_1
  6
Continuous
 62
     7
100
AcDbLine
 10
1137.488989810468
 20
414.587359619944
 30
0.0000000000000001
 11
1171.528418442969
 21
414.587359619944
 31
0.0000000000000001
  0
TEXT
  5
ABC
330
318
100
AcDbEntity
  8
寸法線_1
  6
Continuous
 62
     7
100
AcDbText
 10
987.1637131744371
 20
576.5929079173932
 30
0.0000000000000001
 40
7.055555343627929
  1
32
 50
60.79857855050077
  7
STYLE1
100
AcDbText
  0
LINE
  5
ABD
330
318
100
AcDbEntity
  8
寸法線_1
  6
Continuous
 62
     7
100
AcDbLine
 10
998.5445049105802
 20
592.7965853551138
 30
0.0000000000000001
 11
990.655927717179
 21
578.6824606804215
 31
0.0000000000000001
  0
SOLID
  5
ABE
330
318
100
AcDbEntity
  8
寸法線_1
  6
Continuous
 62
     7
100
AcDbTrace
 10
994.8509159299987
 20
588.8684904734475
 30
0.0000000000000001
 11
997.4798282908952
 21
588.8684904734475
 31
0.0000000000000001
 12
998.5445049105802
 22
592.7965853551138
 32
0.0000000000000001
 13
998.5445049105802
 23
592.7965853551138
 33
0.0000000000000001
  0
SOLID
  5
ABF
330
318
100
AcDbEntity
  8
寸法線_1
  6
Continuous
 62
     7
100
AcDbTrace
 10
996.5124517087001
 20
588.2909474858265
 30
0.0000000000000001
 11
997.3232901892693
 21
588.2909474858265
 31
0.0000000000000001
 12
996.3490389917769
 22
588.8684904734475
 32
0.0000000000000001
 13
997.4798282908952
 23
588.8684904734475
 33
0.0000000000000001
  0
SOLID
  5
AC0
330
318
100
AcDbEntity
  8
寸法線_1
  6
Continuous
 62
     7
100
AcDbTrace
 10
994.3078520582869
 20
588.2909474858265
 30
0.0000000000000001
 11
994.3078520582869
 21
588.2909474858265
 31
0.0000000000000001
 12
994.8509159299987
 22
588.8684904734475
 32
0.0000000000000001
 13
996.3490389917769
 23
588.8684904734475
 33
0.0000000000000001
  0
SOLID
  5
AC1
330
318
100
AcDbEntity
  8
寸法線_1
  6
Continuous
 62
     7
100
AcDbTrace
 10
996.926581979398
 20
586.8273035399576
 30
0.0000000000000001
 11
996.926581979398
 21
586.8273035399576
 31
0.0000000000000001
 12
996.5124517087001
 22
588.2909474858265
 32
0.0000000000000001
 13
997.3232901892693
 23
588.2909474858265
 33
0.0000000000000001
  0
LINE
  5
AC2
330
318
100
AcDbEntity
  8
寸法線_1
  6
Continuous
 62
     7
100
AcDbLine
 10
982.9323028213119
 20
564.8634661965977
 30
0.0000000000000001
 11
990.655927717179
 21
578.6824606804215
 31
0.0000000000000001
  0
SOLID
  5
AC3
330
318
100
AcDbEntity
  8
寸法線_1
  6
Continuous
 62
     7
100
AcDbTrace
 10
984.1535175426232
 20
569.369104065885
 30
0.0000000000000001
 11
984.9643560231918
 21
569.369104065885
 31
0.0000000000000001
 12
984.5502257524943
 22
570.8327480117539
 32
0.0000000000000001
 13
984.5502257524943
 23
570.8327480117539
 33
0.0000000000000001
  0
SOLID
  5
AC4
330
318
100
AcDbEntity
  8
寸法線_1
  6
Continuous
 62
     7
100
AcDbTrace
 10
985.1277687401152
 20
568.791561078264
 30
0.0000000000000001
 11
986.6258918018937
 21
568.791561078264
 31
0.0000000000000001
 12
987.168955673605
 22
569.369104065885
 32
0.0000000000000001
 13
987.168955673605
 23
569.369104065885
 33
0.0000000000000001
  0
SOLID
  5
AC5
330
318
100
AcDbEntity
  8
寸法線_1
  6
Continuous
 62
     7
100
AcDbTrace
 10
983.9969794409972
 20
568.791561078264
 30
0.0000000000000001
 11
985.1277687401152
 21
568.791561078264
 31
0.0000000000000001
 12
984.1535175426232
 22
569.369104065885
 32
0.0000000000000001
 13
984.9643560231918
 23
569.369104065885
 33
0.0000000000000001
  0
SOLID
  5
AC6
330
318
100
AcDbEntity
  8
寸法線_1
  6
Continuous
 62
     7
100
AcDbTrace
 10
982.9323028213119
 20
564.8634661965977
 30
0.0000000000000001
 11
982.9323028213119
 21
564.8634661965977
 31
0.0000000000000001
 12
983.9969794409972
 22
568.791561078264
 32
0.0000000000000001
 13
986.6258918018937
 23
568.791561078264
 33
0.0000000000000001
  0
LINE
  5
AC7
330
318
100
AcDbEntity
  8
寸法線_1
  6
Continuous
 62
     7
100
AcDbLine
 10
989.2720779784692
 20
561.3200792088296
 30
0.0000000000000001
 11
982.4958478344601
 21
565.1074068542425
 31
0.0000000000000001
  0
LINE
  5
AC8
330
318
100
AcDbEntity
  8
寸法線_1
  6
Continuous
 62
     7
100
AcDbLine
 10
1004.884280067738
 20
589.2531983673454
 30
0.0000000000000001
 11
998.1080499237286
 21
593.0405260127586
 31
0.0000000000000001
  0
TEXT
  5
AC9
330
318
100
AcDbEntity
  8
寸法線_1
  6
Continuous
 62
     7
100
AcDbText
 10
994.3210200041605
 20
502.8466313998759
 30
0.0000000000000001
 40
7.055555343627929
  1
(R1000)
 50
50.0
  7
STYLE1
100
AcDbText
  0
LINE
  5
ACA
330
318
100
AcDbEntity
  8
寸法線_1
  6
Continuous
 62
     7
100
AcDbLine
 10
1027.453191603687
 20
538.5359778862916
 30
0.0000000000000001
 11
996.1902038542463
 21
501.2781999206662
 31
0.0000000000000001
  0
SOLID
  5
ACB
330
318
100
AcDbEntity
  8
寸法線_1
  6
Continuous
 62
     7
100
AcDbTrace
 10
1022.702210801978
 20
535.0887778922563
 30
0.0000000000000001
 11
1025.774578307944
 21
535.0887778922563
 31
0.0000000000000001
 12
1027.453191603687
 22
538.5359778862916
 32
0.0000000000000001
 13
1027.453191603687
 23
538.5359778862916
 33
0.0000000000000001
  0
SOLID
  5
ACC
330
318
100
AcDbEntity
  8
寸法線_1
  6
Continuous
 62
     7
100
AcDbTrace
 10
1024.576822723539
 20
534.9038926421076
 30
0.0000000000000001
 11
1025.684548475145
 21
534.9038926421076
 31
0.0000000000000001
 12
1024.560647360098
 22
535.0887778922563
 32
0.0000000000000001
 13
1025.774578307944
 23
535.0887778922563
 33
0.0000000000000001
  0
SOLID
  5
ACD
330
318
100
AcDbEntity
  8
寸法線_1
  6
Continuous
 62
     7
100
AcDbTrace
 10
1022.44739928089
 20
534.9038926421076
 30
0.0000000000000001
 11
1022.44739928089
 21
534.9038926421076
 31
0.0000000000000001
 12
1022.702210801978
 22
535.0887778922563
 32
0.0000000000000001
 13
1024.560647360098
 23
535.0887778922563
 33
0.0000000000000001
  0
SOLID
  5
ACE
330
318
100
AcDbEntity
  8
寸法線_1
  6
Continuous
 62
     7
100
AcDbTrace
 10
1024.745532610247
 20
532.975529813048
 30
0.0000000000000001
 11
1024.745532610247
 21
532.975529813048
 31
0.0000000000000001
 12
1024.576822723539
 22
534.9038926421076
 32
0.0000000000000001
 13
1025.684548475145
 23
534.9038926421076
 33
0.0000000000000001
  0
TEXT
  5
ACF
330
318
100
AcDbEntity
  8
寸法線_1
  6
Continuous
 62
     7
100
AcDbText
 10
928.2084924295176
 20
402.060125442378
 30
0.0000000000000001
 40
7.055555343627929
  1
補強(375)
  7
STYLE1
100
AcDbText
  0
LINE
  5
AD0
330
318
100
AcDbEntity
  8
寸法線_1
  6
Continuous
 62
     7
100
AcDbLine
 10
757.1065988153479
 20
400.031190288099
 30
0.0000000000000001
 11
944.0834919526805
 21
400.031190288099
 31
0.0000000000000001
  0
SOLID
  5
AD1
330
318
100
AcDbEntity
  8
寸法線_1
  6
Continuous
 62
     7
100
AcDbTrace
 10
757.1065988153479
 20
400.031190288099
 30
0.0000000000000001
 11
761.6065988153479
 21
400.031190288099
 31
0.0000000000000001
 12
763.106598815348
 22
401.531190288099
 32
0.0000000000000001
 13
763.106598815348
 23
401.531190288099
 33
0.0000000000000001
  0
SOLID
  5
AD2
330
318
100
AcDbEntity
  8
寸法線_1
  6
Continuous
 62
     7
100
AcDbTrace
 10
763.106598815348
 20
398.531190288099
 30
0.0000000000000001
 11
763.106598815348
 21
398.531190288099
 31
0.0000000000000001
 12
757.1065988153479
 22
400.031190288099
 32
0.0000000000000001
 13
761.6065988153479
 23
400.031190288099
 33
0.0000000000000001
  0
LINE
  5
AD3
330
318
100
AcDbEntity
  8
寸法線_1
  6
Continuous
 62
     7
100
AcDbLine
 10
1131.060385090013
 20
400.031190288099
 30
0.0000000000000001
 11
944.0834919526805
 21
400.031190288099
 31
0.0000000000000001
  0
SOLID
  5
AD4
330
318
100
AcDbEntity
  8
寸法線_1
  6
Continuous
 62
     7
100
AcDbTrace
 10
1126.560385090013
 20
400.031190288099
 30
0.0000000000000001
 11
1131.060385090013
 21
400.031190288099
 31
0.0000000000000001
 12
1125.060385090013
 22
401.531190288099
 32
0.0000000000000001
 13
1125.060385090013
 23
401.531190288099
 33
0.0000000000000001
  0
SOLID
  5
AD5
330
318
100
AcDbEntity
  8
寸法線_1
  6
Continuous
 62
     7
100
AcDbTrace
 10
1125.060385090013
 20
398.531190288099
 30
0.0000000000000001
 11
1125.060385090013
 21
398.531190288099
 31
0.0000000000000001
 12
1126.560385090013
 22
400.031190288099
 32
0.0000000000000001
 13
1131.060385090013
 23
400.031190288099
 33
0.0000000000000001
  0
LINE
  5
AD6
330
318
100
AcDbEntity
  8
寸法線_1
  6
Continuous
 62
     7
100
AcDbLine
 10
1131.060385090013
 20
413.5873596199444
 30
0.0000000000000001
 11
1131.060385090013
 21
399.531190288099
 31
0.0000000000000001
  0
LINE
  5
AD7
330
318
100
AcDbEntity
  8
寸法線_1
  6
Continuous
 62
     7
100
AcDbLine
 10
757.1065988153479
 20
658.5873596199444
 30
0.0000000000000001
 11
757.1065988153479
 21
399.531190288099
 31
0.0000000000000001
  0
TEXT
  5
AD8
330
318
100
AcDbEntity
  8
寸法線_1
  6
Continuous
 62
     7
100
AcDbText
 10
614.0314499357345
 20
546.2123600967816
 30
0.0000000000000001
 40
7.055555343627929
  1
補強(195)
 50
90.0
  7
STYLE1
100
AcDbText
  0
LINE
  5
AD9
330
318
100
AcDbEntity
  8
寸法線_1
  6
Continuous
 62
     7
100
AcDbLine
 10
616.0603850900136
 20
659.5873596199444
 30
0.0000000000000001
 11
616.0603850900136
 21
562.0873596199444
 31
0.0000000000000001
  0
SOLID
  5
ADA
330
318
100
AcDbEntity
  8
寸法線_1
  6
Continuous
 62
     7
100
AcDbTrace
 10
614.9353850900135
 20
655.0873596199444
 30
0.0000000000000001
 11
617.1853850900135
 21
655.0873596199444
 31
0.0000000000000001
 12
616.0603850900136
 22
659.5873596199444
 32
0.0000000000000001
 13
616.0603850900136
 23
659.5873596199444
 33
0.0000000000000001
  0
SOLID
  5
ADB
330
318
100
AcDbEntity
  8
寸法線_1
  6
Continuous
 62
     7
100
AcDbTrace
 10
617.5603850900135
 20
653.5873596199444
 30
0.0000000000000001
 11
617.5603850900135
 21
653.5873596199444
 31
0.0000000000000001
 12
616.0603850900136
 22
655.0873596199444
 32
0.0000000000000001
 13
617.1853850900135
 23
655.0873596199444
 33
0.0000000000000001
  0
SOLID
  5
ADC
330
318
100
AcDbEntity
  8
寸法線_1
  6
Continuous
 62
     7
100
AcDbTrace
 10
614.5603850900136
 20
653.5873596199444
 30
0.0000000000000001
 11
614.5603850900136
 21
653.5873596199444
 31
0.0000000000000001
 12
614.9353850900135
 22
655.0873596199444
 32
0.0000000000000001
 13
616.0603850900136
 23
655.0873596199444
 33
0.0000000000000001
  0
LINE
  5
ADD
330
318
100
AcDbEntity
  8
寸法線_1
  6
Continuous
 62
     7
100
AcDbLine
 10
616.0603850900136
 20
464.5873596199444
 30
0.0000000000000001
 11
616.0603850900136
 21
562.0873596199444
 31
0.0000000000000001
  0
SOLID
  5
ADE
330
318
100
AcDbEntity
  8
寸法線_1
  6
Continuous
 62
     7
100
AcDbTrace
 10
616.0603850900136
 20
469.0873596199444
 30
0.0000000000000001
 11
617.1853850900135
 21
469.0873596199444
 31
0.0000000000000001
 12
617.5603850900135
 22
470.5873596199444
 32
0.0000000000000001
 13
617.5603850900135
 23
470.5873596199444
 33
0.0000000000000001
  0
SOLID
  5
ADF
330
318
100
AcDbEntity
  8
寸法線_1
  6
Continuous
 62
     7
100
AcDbTrace
 10
614.9353850900135
 20
469.0873596199444
 30
0.0000000000000001
 11
616.0603850900136
 21
469.0873596199444
 31
0.0000000000000001
 12
614.5603850900136
 22
470.5873596199444
 32
0.0000000000000001
 13
614.5603850900136
 23
470.5873596199444
 33
0.0000000000000001
  0
SOLID
  5
AE0
330
318
100
AcDbEntity
  8
寸法線_1
  6
Continuous
 62
     7
100
AcDbTrace
 10
616.0603850900136
 20
464.5873596199444
 30
0.0000000000000001
 11
616.0603850900136
 21
464.5873596199444
 31
0.0000000000000001
 12
614.9353850900135
 22
469.0873596199444
 32
0.0000000000000001
 13
617.1853850900135
 23
469.0873596199444
 33
0.0000000000000001
  0
LINE
  5
AE1
330
318
100
AcDbEntity
  8
寸法線_1
  6
Continuous
 62
     7
100
AcDbLine
 10
1130.060385090013
 20
464.5873596199444
 30
0.0000000000000001
 11
615.5603850900136
 21
464.5873596199444
 31
0.0000000000000001
  0
LINE
  5
AE2
330
318
100
AcDbEntity
  8
寸法線_1
  6
Continuous
 62
     7
100
AcDbLine
 10
635.0603850900135
 20
659.5873596199444
 30
0.0000000000000001
 11
615.5603850900136
 21
659.5873596199444
 31
0.0000000000000001
  0
TEXT
  5
AE3
330
318
100
AcDbEntity
  8
寸法線_1
  6
Continuous
 62
     7
100
AcDbText
 10
1103.373889998146
 20
641.031061103605
 30
0.0000000000000001
 40
7.055555343627929
  1
90ﾟ
 50
313.0092353436513
  7
STYLE1
100
AcDbText
  0
LINE
  5
AE4
330
318
100
AcDbEntity
  8
寸法線_1
  6
Continuous
 62
     7
100
AcDbLine
 10
640.0603850900136
 20
660.0873596199441
 30
0.0000000000000001
 11
1098.804973986583
 21
660.0873596199441
 31
0.0000000000000001
  0
LINE
  5
AE5
330
318
100
AcDbEntity
  8
寸法線_1
  6
Continuous
 62
     7
100
AcDbLine
 10
1131.560385090013
 20
418.587359619944
 30
0.0000000000000001
 11
1131.560385090013
 21
627.3319485165135
 31
0.0000000000000001
  0
SOLID
  5
AE6
330
318
100
AcDbEntity
  8
寸法線_1
  6
Continuous
 62
     7
100
AcDbTrace
 10
1094.12722288447
 20
655.6075765299192
 30
0.0000000000000001
 11
1096.388655545253
 21
655.6075765299192
 31
0.0000000000000001
 12
1094.804973986583
 22
660.0873596199441
 32
0.0000000000000001
 13
1094.804973986583
 23
660.0873596199441
 33
0.0000000000000001
  0
SOLID
  5
AE7
330
318
100
AcDbEntity
  8
寸法線_1
  6
Continuous
 62
     7
100
AcDbTrace
 10
1096.866340587886
 20
654.2563418927348
 30
0.0000000000000001
 11
1096.866340587886
 21
654.2563418927348
 31
0.0000000000000001
 12
1095.231053165054
 22
655.6075765299192
 32
0.0000000000000001
 13
1096.388655545253
 23
655.6075765299192
 33
0.0000000000000001
  0
SOLID
  5
AE8
330
318
100
AcDbEntity
  8
寸法線_1
  6
Continuous
 62
     7
100
AcDbTrace
 10
1093.922793172995
 20
654.2563418927348
 30
0.0000000000000001
 11
1094.114530760959
 21
654.2563418927348
 31
0.0000000000000001
 12
1094.12722288447
 22
655.6075765299192
 32
0.0000000000000001
 13
1095.231053165054
 23
655.6075765299192
 33
0.0000000000000001
  0
SOLID
  5
AE9
330
318
100
AcDbEntity
  8
寸法線_1
  6
Continuous
 62
     7
100
AcDbTrace
 10
1093.87981852787
 20
653.9722891070871
 30
0.0000000000000001
 11
1093.87981852787
 21
653.9722891070871
 31
0.0000000000000001
 12
1093.922793172995
 22
654.2563418927348
 32
0.0000000000000001
 13
1094.114530760959
 23
654.2563418927348
 33
0.0000000000000001
  0
ARC
  5
AEA
330
318
100
AcDbEntity
  8
寸法線_1
  6
Continuous
 62
     7
100
AcDbCircle
 10
1131.560385090013
 20
660.0873596199441
 30
0.0000000000000001
 40
36.75541110343056
100
AcDbArc
 50
180.0
 51
236.020648485997
  0
SOLID
  5
AEB
330
318
100
AcDbEntity
  8
寸法線_1
  6
Continuous
 62
     7
100
AcDbTrace
 10
1127.080601999988
 20
623.758027694985
 30
0.0000000000000001
 11
1130.355128712379
 21
623.758027694985
 31
0.0000000000000001
 12
1125.729367362804
 22
625.3933151178173
 32
0.0000000000000001
 13
1125.729367362804
 23
625.3933151178173
 33
0.0000000000000001
  0
SOLID
  5
AEC
330
318
100
AcDbEntity
  8
寸法線_1
  6
Continuous
 62
     7
100
AcDbTrace
 10
1126.564953642174
 20
623.3319485165135
 30
0.0000000000000001
 11
1131.560385090013
 21
623.3319485165135
 31
0.0000000000000001
 12
1127.080601999988
 22
623.758027694985
 32
0.0000000000000001
 13
1130.355128712379
 23
623.758027694985
 33
0.0000000000000001
  0
SOLID
  5
AED
330
318
100
AcDbEntity
  8
寸法線_1
  6
Continuous
 62
     7
100
AcDbTrace
 10
1125.445314577156
 20
622.4067930578008
 30
0.0000000000000001
 11
1125.445314577156
 21
622.4067930578008
 31
0.0000000000000001
 12
1126.564953642174
 22
623.3319485165135
 32
0.0000000000000001
 13
1131.560385090013
 23
623.3319485165135
 33
0.0000000000000001
  0
ARC
  5
AEE
330
318
100
AcDbEntity
  8
寸法線_1
  6
Continuous
 62
     7
100
AcDbCircle
 10
1131.560385090013
 20
660.0873596199441
 30
0.0000000000000001
 40
36.75541110343065
100
AcDbArc
 50
209.9978222013059
 51
270.0
  0
TEXT
  5
AEF
330
318
100
AcDbEntity
  8
寸法線_1
  6
Continuous
 62
     7
100
AcDbText
 10
1178.612092913362
 20
322.472245974531
 30
0.0000000000000001
 40
7.055555343627929
  1
8
 50
90.0
  7
STYLE1
100
AcDbText
  0
LINE
  5
AF0
330
318
100
AcDbEntity
  8
寸法線_1
  6
Continuous
 62
     7
100
AcDbLine
 10
1180.641028067641
 20
320.2361348104379
 30
0.0000000000000001
 11
1180.641028067641
 21
317.2361348104379
 31
0.0000000000000001
  0
SOLID
  5
AF1
330
318
100
AcDbEntity
  8
寸法線_1
  6
Continuous
 62
     7
100
AcDbTrace
 10
1179.516028067641
 20
315.7361348104379
 30
0.0000000000000001
 11
1181.766028067641
 21
315.7361348104379
 31
0.0000000000000001
 12
1180.641028067641
 22
320.2361348104379
 32
0.0000000000000001
 13
1180.641028067641
 23
320.2361348104379
 33
0.0000000000000001
  0
SOLID
  5
AF2
330
318
100
AcDbEntity
  8
寸法線_1
  6
Continuous
 62
     7
100
AcDbTrace
 10
1182.141028067641
 20
314.2361348104379
 30
0.0000000000000001
 11
1182.141028067641
 21
314.2361348104379
 31
0.0000000000000001
 12
1180.641028067641
 22
315.7361348104379
 32
0.0000000000000001
 13
1181.766028067641
 23
315.7361348104379
 33
0.0000000000000001
  0
SOLID
  5
AF3
330
318
100
AcDbEntity
  8
寸法線_1
  6
Continuous
 62
     7
100
AcDbTrace
 10
1179.141028067641
 20
314.2361348104379
 30
0.0000000000000001
 11
1179.141028067641
 21
314.2361348104379
 31
0.0000000000000001
 12
1179.516028067641
 22
315.7361348104379
 32
0.0000000000000001
 13
1180.641028067641
 23
315.7361348104379
 33
0.0000000000000001
  0
LINE
  5
AF4
330
318
100
AcDbEntity
  8
寸法線_1
  6
Continuous
 62
     7
100
AcDbLine
 10
1180.641028067641
 20
328.2361348104379
 30
0.0000000000000001
 11
1180.641028067641
 21
331.2361348104379
 31
0.0000000000000001
  0
SOLID
  5
AF5
330
318
100
AcDbEntity
  8
寸法線_1
  6
Continuous
 62
     7
100
AcDbTrace
 10
1180.641028067641
 20
332.7361348104379
 30
0.0000000000000001
 11
1181.766028067641
 21
332.7361348104379
 31
0.0000000000000001
 12
1182.141028067641
 22
334.2361348104379
 32
0.0000000000000001
 13
1182.141028067641
 23
334.2361348104379
 33
0.0000000000000001
  0
SOLID
  5
AF6
330
318
100
AcDbEntity
  8
寸法線_1
  6
Continuous
 62
     7
100
AcDbTrace
 10
1179.516028067641
 20
332.7361348104379
 30
0.0000000000000001
 11
1180.641028067641
 21
332.7361348104379
 31
0.0000000000000001
 12
1179.141028067641
 22
334.2361348104379
 32
0.0000000000000001
 13
1179.141028067641
 23
334.2361348104379
 33
0.0000000000000001
  0
SOLID
  5
AF7
330
318
100
AcDbEntity
  8
寸法線_1
  6
Continuous
 62
     7
100
AcDbTrace
 10
1180.641028067641
 20
328.2361348104379
 30
0.0000000000000001
 11
1180.641028067641
 21
328.2361348104379
 31
0.0000000000000001
 12
1179.516028067641
 22
332.7361348104379
 32
0.0000000000000001
 13
1181.766028067641
 23
332.7361348104379
 33
0.0000000000000001
  0
LINE
  5
AF8
330
318
100
AcDbEntity
  8
寸法線_1
  6
Continuous
 62
     7
100
AcDbLine
 10
939.560385090014
 20
328.2361348104379
 30
0.0000000000000001
 11
1181.141028067641
 21
328.2361348104379
 31
0.0000000000000001
  0
LINE
  5
AF9
330
318
100
AcDbEntity
  8
寸法線_1
  6
Continuous
 62
     7
100
AcDbLine
 10
1138.368872305922
 20
320.2361348104379
 30
0.0000000000000001
 11
1181.141028067641
 21
320.2361348104379
 31
0.0000000000000001
  0
LINE
  5
AFA
330
318
100
AcDbEntity
  8
寸法線_1
  6
Continuous
 62
     7
100
AcDbLine
 10
1180.641028067641
 20
328.2361348104379
 30
0.0000000000000001
 11
1180.641028067641
 21
320.2361348104379
 31
0.0000000000000001
  0
TEXT
  5
AFB
330
318
100
AcDbEntity
  8
寸法線_1
  6
Continuous
 62
     7
100
AcDbText
 10
1192.194036147893
 20
335.708357138624
 30
0.0000000000000001
 40
7.055555343627929
  1
38
 50
90.0
  7
STYLE1
100
AcDbText
  0
LINE
  5
AFC
330
318
100
AcDbEntity
  8
寸法線_1
  6
Continuous
 62
     7
100
AcDbLine
 10
1137.060385090014
 20
358.2361348104379
 30
0.0000000000000001
 11
1194.722971302172
 21
358.2361348104379
 31
0.0000000000000001
  0
LINE
  5
AFD
330
318
100
AcDbEntity
  8
寸法線_1
  6
Continuous
 62
     7
100
AcDbLine
 10
1137.060385090014
 20
320.2361348104379
 30
0.0000000000000001
 11
1194.722971302172
 21
320.2361348104379
 31
0.0000000000000001
  0
TEXT
  5
AFE
330
318
100
AcDbEntity
  8
寸法線_1
  6
Continuous
 62
     7
100
AcDbText
 10
1163.402961644157
 20
333.9444683027171
 30
0.0000000000000001
 40
7.055555343627929
  1
4.5
 50
90.0
  7
STYLE1
100
AcDbText
  0
LINE
  5
AFF
330
318
100
AcDbEntity
  8
寸法線_1
  6
Continuous
 62
     7
100
AcDbLine
 10
1165.431896798436
 20
336.9861348104379
 30
0.0000000000000001
 11
1165.431896798436
 21
333.9861348104379
 31
0.0000000000000001
  0
SOLID
  5
B00
330
318
100
AcDbEntity
  8
寸法線_1
  6
Continuous
 62
     7
100
AcDbTrace
 10
1164.306896798436
 20
332.4861348104379
 30
0.0000000000000001
 11
1166.556896798436
 21
332.4861348104379
 31
0.0000000000000001
 12
1165.431896798436
 22
336.9861348104379
 32
0.0000000000000001
 13
1165.431896798436
 23
336.9861348104379
 33
0.0000000000000001
  0
SOLID
  5
B01
330
318
100
AcDbEntity
  8
寸法線_1
  6
Continuous
 62
     7
100
AcDbTrace
 10
1166.931896798436
 20
330.9861348104379
 30
0.0000000000000001
 11
1166.931896798436
 21
330.9861348104379
 31
0.0000000000000001
 12
1165.431896798436
 22
332.4861348104379
 32
0.0000000000000001
 13
1166.556896798436
 23
332.4861348104379
 33
0.0000000000000001
  0
SOLID
  5
B02
330
318
100
AcDbEntity
  8
寸法線_1
  6
Continuous
 62
     7
100
AcDbTrace
 10
1163.931896798436
 20
330.9861348104379
 30
0.0000000000000001
 11
1163.931896798436
 21
330.9861348104379
 31
0.0000000000000001
 12
1164.306896798436
 22
332.4861348104379
 32
0.0000000000000001
 13
1165.431896798436
 23
332.4861348104379
 33
0.0000000000000001
  0
LINE
  5
B03
330
318
100
AcDbEntity
  8
寸法線_1
  6
Continuous
 62
     7
100
AcDbLine
 10
1165.431896798436
 20
341.4861348104379
 30
0.0000000000000001
 11
1165.431896798436
 21
344.4861348104379
 31
0.0000000000000001
  0
SOLID
  5
B04
330
318
100
AcDbEntity
  8
寸法線_1
  6
Continuous
 62
     7
100
AcDbTrace
 10
1165.431896798436
 20
345.9861348104379
 30
0.0000000000000001
 11
1166.556896798436
 21
345.9861348104379
 31
0.0000000000000001
 12
1166.931896798436
 22
347.4861348104379
 32
0.0000000000000001
 13
1166.931896798436
 23
347.4861348104379
 33
0.0000000000000001
  0
SOLID
  5
B05
330
318
100
AcDbEntity
  8
寸法線_1
  6
Continuous
 62
     7
100
AcDbTrace
 10
1164.306896798436
 20
345.9861348104379
 30
0.0000000000000001
 11
1165.431896798436
 21
345.9861348104379
 31
0.0000000000000001
 12
1163.931896798436
 22
347.4861348104379
 32
0.0000000000000001
 13
1163.931896798436
 23
347.4861348104379
 33
0.0000000000000001
  0
SOLID
  5
B06
330
318
100
AcDbEntity
  8
寸法線_1
  6
Continuous
 62
     7
100
AcDbTrace
 10
1165.431896798436
 20
341.4861348104379
 30
0.0000000000000001
 11
1165.431896798436
 21
341.4861348104379
 31
0.0000000000000001
 12
1164.306896798436
 22
345.9861348104379
 32
0.0000000000000001
 13
1166.556896798436
 23
345.9861348104379
 33
0.0000000000000001
  0
LINE
  5
B07
330
318
100
AcDbEntity
  8
寸法線_1
  6
Continuous
 62
     7
100
AcDbLine
 10
1132.560385090013
 20
341.4861348104379
 30
0.0000000000000001
 11
1165.931896798436
 21
341.4861348104379
 31
0.0000000000000001
  0
LINE
  5
B08
330
318
100
AcDbEntity
  8
寸法線_1
  6
Continuous
 62
     7
100
AcDbLine
 10
1132.560385090013
 20
336.9861348104379
 30
0.0000000000000001
 11
1165.931896798436
 21
336.9861348104379
 31
0.0000000000000001
  0
LINE
  5
B09
330
318
100
AcDbEntity
  8
寸法線_1
  6
Continuous
 62
     7
100
AcDbLine
 10
1165.431896798436
 20
341.4861348104379
 30
0.0000000000000001
 11
1165.431896798436
 21
336.9861348104379
 31
0.0000000000000001
  0
TEXT
  5
B0A
330
318
100
AcDbEntity
  8
寸法線_1
  6
Continuous
 62
     7
100
AcDbText
 10
1178.61209263593
 20
335.708357138624
 30
0.0000000000000001
 40
7.055555343627929
  1
22
 50
90.0
  7
STYLE1
100
AcDbText
  0
LINE
  5
B0B
330
318
100
AcDbEntity
  8
寸法線_1
  6
Continuous
 62
     7
100
AcDbLine
 10
1180.641027790209
 20
328.2361348104379
 30
0.0000000000000001
 11
1180.641027790209
 21
325.236134810438
 31
0.0000000000000001
  0
SOLID
  5
B0C
330
318
100
AcDbEntity
  8
寸法線_1
  6
Continuous
 62
     7
100
AcDbTrace
 10
1179.516027790209
 20
323.7361348104379
 30
0.0000000000000001
 11
1181.766027790209
 21
323.7361348104379
 31
0.0000000000000001
 12
1180.641027790209
 22
328.2361348104379
 32
0.0000000000000001
 13
1180.641027790209
 23
328.2361348104379
 33
0.0000000000000001
  0
SOLID
  5
B0D
330
318
100
AcDbEntity
  8
寸法線_1
  6
Continuous
 62
     7
100
AcDbTrace
 10
1182.141027790209
 20
322.2361348104379
 30
0.0000000000000001
 11
1182.141027790209
 21
322.2361348104379
 31
0.0000000000000001
 12
1180.641027790209
 22
323.7361348104379
 32
0.0000000000000001
 13
1181.766027790209
 23
323.7361348104379
 33
0.0000000000000001
  0
SOLID
  5
B0E
330
318
100
AcDbEntity
  8
寸法線_1
  6
Continuous
 62
     7
100
AcDbTrace
 10
1179.141027790209
 20
322.2361348104379
 30
0.0000000000000001
 11
1179.141027790209
 21
322.2361348104379
 31
0.0000000000000001
 12
1179.516027790209
 22
323.7361348104379
 32
0.0000000000000001
 13
1180.641027790209
 23
323.7361348104379
 33
0.0000000000000001
  0
LINE
  5
B0F
330
318
100
AcDbEntity
  8
寸法線_1
  6
Continuous
 62
     7
100
AcDbLine
 10
1180.641027790209
 20
350.236134810438
 30
0.0000000000000001
 11
1180.641027790209
 21
353.2361348104379
 31
0.0000000000000001
  0
SOLID
  5
B10
330
318
100
AcDbEntity
  8
寸法線_1
  6
Continuous
 62
     7
100
AcDbTrace
 10
1180.641027790209
 20
354.7361348104379
 30
0.0000000000000001
 11
1181.766027790209
 21
354.7361348104379
 31
0.0000000000000001
 12
1182.141027790209
 22
356.2361348104379
 32
0.0000000000000001
 13
1182.141027790209
 23
356.2361348104379
 33
0.0000000000000001
  0
SOLID
  5
B11
330
318
100
AcDbEntity
  8
寸法線_1
  6
Continuous
 62
     7
100
AcDbTrace
 10
1179.516027790209
 20
354.7361348104379
 30
0.0000000000000001
 11
1180.641027790209
 21
354.7361348104379
 31
0.0000000000000001
 12
1179.141027790209
 22
356.2361348104379
 32
0.0000000000000001
 13
1179.141027790209
 23
356.2361348104379
 33
0.0000000000000001
  0
SOLID
  5
B12
330
318
100
AcDbEntity
  8
寸法線_1
  6
Continuous
 62
     7
100
AcDbTrace
 10
1180.641027790209
 20
350.236134810438
 30
0.0000000000000001
 11
1180.641027790209
 21
350.236134810438
 31
0.0000000000000001
 12
1179.516027790209
 22
354.7361348104379
 32
0.0000000000000001
 13
1181.766027790209
 23
354.7361348104379
 33
0.0000000000000001
  0
LINE
  5
B13
330
318
100
AcDbEntity
  8
寸法線_1
  6
Continuous
 62
     7
100
AcDbLine
 10
1074.560385090014
 20
350.236134810438
 30
0.0000000000000001
 11
1181.141027790209
 21
350.236134810438
 31
0.0000000000000001
  0
LINE
  5
B14
330
318
100
AcDbEntity
  8
寸法線_1
  6
Continuous
 62
     7
100
AcDbLine
 10
939.560385090014
 20
328.2361348104379
 30
0.0000000000000001
 11
1181.141027790209
 21
328.2361348104379
 31
0.0000000000000001
  0
LINE
  5
B15
330
318
100
AcDbEntity
  8
寸法線_1
  6
Continuous
 62
     7
100
AcDbLine
 10
1180.641027790209
 20
350.236134810438
 30
0.0000000000000001
 11
1180.641027790209
 21
328.2361348104379
 31
0.0000000000000001
  0
TEXT
  5
B16
330
318
100
AcDbEntity
  8
寸法線_1
  6
Continuous
 62
     7
100
AcDbText
 10
855.7687185822926
 20
298.8968035009711
 30
0.0000000000000001
 40
7.055555343627929
  1
140
  7
STYLE1
100
AcDbText
  0
LINE
  5
B17
330
318
100
AcDbEntity
  8
寸法線_1
  6
Continuous
 62
     7
100
AcDbLine
 10
931.060385090014
 20
296.867868346692
 30
0.0000000000000001
 11
861.060385090014
 21
296.867868346692
 31
0.0000000000000001
  0
SOLID
  5
B18
330
318
100
AcDbEntity
  8
寸法線_1
  6
Continuous
 62
     7
100
AcDbTrace
 10
926.560385090014
 20
296.867868346692
 30
0.0000000000000001
 11
931.060385090014
 21
296.867868346692
 31
0.0000000000000001
 12
925.0603850900141
 22
298.367868346692
 32
0.0000000000000001
 13
925.0603850900141
 23
298.367868346692
 33
0.0000000000000001
  0
SOLID
  5
B19
330
318
100
AcDbEntity
  8
寸法線_1
  6
Continuous
 62
     7
100
AcDbTrace
 10
925.0603850900141
 20
295.367868346692
 30
0.0000000000000001
 11
925.0603850900141
 21
295.367868346692
 31
0.0000000000000001
 12
926.560385090014
 22
296.867868346692
 32
0.0000000000000001
 13
931.060385090014
 23
296.867868346692
 33
0.0000000000000001
  0
LINE
  5
B1A
330
318
100
AcDbEntity
  8
寸法線_1
  6
Continuous
 62
     7
100
AcDbLine
 10
791.060385090014
 20
296.867868346692
 30
0.0000000000000001
 11
861.060385090014
 21
296.867868346692
 31
0.0000000000000001
  0
SOLID
  5
B1B
330
318
100
AcDbEntity
  8
寸法線_1
  6
Continuous
 62
     7
100
AcDbTrace
 10
791.060385090014
 20
296.867868346692
 30
0.0000000000000001
 11
795.560385090014
 21
296.867868346692
 31
0.0000000000000001
 12
797.0603850900141
 22
298.367868346692
 32
0.0000000000000001
 13
797.0603850900141
 23
298.367868346692
 33
0.0000000000000001
  0
SOLID
  5
B1C
330
318
100
AcDbEntity
  8
寸法線_1
  6
Continuous
 62
     7
100
AcDbTrace
 10
797.0603850900141
 20
295.367868346692
 30
0.0000000000000001
 11
797.0603850900141
 21
295.367868346692
 31
0.0000000000000001
 12
791.060385090014
 22
296.867868346692
 32
0.0000000000000001
 13
795.560385090014
 23
296.867868346692
 33
0.0000000000000001
  0
LINE
  5
B1D
330
318
100
AcDbEntity
  8
寸法線_1
  6
Continuous
 62
     7
100
AcDbLine
 10
791.060385090014
 20
341.7361348104379
 30
0.0000000000000001
 11
791.060385090014
 21
296.367868346692
 31
0.0000000000000001
  0
LINE
  5
B1E
330
318
100
AcDbEntity
  8
寸法線_1
  6
Continuous
 62
     7
100
AcDbLine
 10
931.060385090014
 20
319.7361348104379
 30
0.0000000000000001
 11
931.060385090014
 21
296.367868346692
 31
0.0000000000000001
  0
TEXT
  5
B1F
330
318
100
AcDbEntity
  8
寸法線_1
  6
Continuous
 62
     7
100
AcDbText
 10
993.2687185822926
 20
298.8968035009711
 30
0.0000000000000001
 40
7.055555343627929
  1
135
  7
STYLE1
100
AcDbText
  0
LINE
  5
B20
330
318
100
AcDbEntity
  8
寸法線_1
  6
Continuous
 62
     7
100
AcDbLine
 10
1066.060385090014
 20
296.867868346692
 30
0.0000000000000001
 11
998.560385090014
 21
296.867868346692
 31
0.0000000000000001
  0
SOLID
  5
B21
330
318
100
AcDbEntity
  8
寸法線_1
  6
Continuous
 62
     7
100
AcDbTrace
 10
1061.560385090014
 20
296.867868346692
 30
0.0000000000000001
 11
1066.060385090014
 21
296.867868346692
 31
0.0000000000000001
 12
1060.060385090014
 22
298.367868346692
 32
0.0000000000000001
 13
1060.060385090014
 23
298.367868346692
 33
0.0000000000000001
  0
SOLID
  5
B22
330
318
100
AcDbEntity
  8
寸法線_1
  6
Continuous
 62
     7
100
AcDbTrace
 10
1060.060385090014
 20
295.367868346692
 30
0.0000000000000001
 11
1060.060385090014
 21
295.367868346692
 31
0.0000000000000001
 12
1061.560385090014
 22
296.867868346692
 32
0.0000000000000001
 13
1066.060385090014
 23
296.867868346692
 33
0.0000000000000001
  0
LINE
  5
B23
330
318
100
AcDbEntity
  8
寸法線_1
  6
Continuous
 62
     7
100
AcDbLine
 10
931.060385090014
 20
296.867868346692
 30
0.0000000000000001
 11
998.560385090014
 21
296.867868346692
 31
0.0000000000000001
  0
SOLID
  5
B24
330
318
100
AcDbEntity
  8
寸法線_1
  6
Continuous
 62
     7
100
AcDbTrace
 10
931.060385090014
 20
296.867868346692
 30
0.0000000000000001
 11
935.560385090014
 21
296.867868346692
 31
0.0000000000000001
 12
937.060385090014
 22
298.367868346692
 32
0.0000000000000001
 13
937.060385090014
 23
298.367868346692
 33
0.0000000000000001
  0
SOLID
  5
B25
330
318
100
AcDbEntity
  8
寸法線_1
  6
Continuous
 62
     7
100
AcDbTrace
 10
937.060385090014
 20
295.367868346692
 30
0.0000000000000001
 11
937.060385090014
 21
295.367868346692
 31
0.0000000000000001
 12
931.060385090014
 22
296.867868346692
 32
0.0000000000000001
 13
935.560385090014
 23
296.867868346692
 33
0.0000000000000001
  0
LINE
  5
B26
330
318
100
AcDbEntity
  8
寸法線_1
  6
Continuous
 62
     7
100
AcDbLine
 10
931.060385090014
 20
319.7361348104379
 30
0.0000000000000001
 11
931.060385090014
 21
296.367868346692
 31
0.0000000000000001
  0
LINE
  5
B27
330
318
100
AcDbEntity
  8
寸法線_1
  6
Continuous
 62
     7
100
AcDbLine
 10
1066.060385090014
 20
341.7361348104379
 30
0.0000000000000001
 11
1066.060385090014
 21
296.367868346692
 31
0.0000000000000001
  0
TEXT
  5
B28
330
318
100
AcDbEntity
  8
寸法線_1
  6
Continuous
 62
     7
100
AcDbText
 10
1178.61209263593
 20
351.6299541425607
 30
0.0000000000000001
 40
7.055555343627929
  1
8
 50
90.0
  7
STYLE1
100
AcDbText
  0
LINE
  5
B29
330
318
100
AcDbEntity
  8
寸法線_1
  6
Continuous
 62
     7
100
AcDbLine
 10
1180.641027790209
 20
350.236134810438
 30
0.0000000000000001
 11
1180.641027790209
 21
347.2361348104379
 31
0.0000000000000001
  0
SOLID
  5
B2A
330
318
100
AcDbEntity
  8
寸法線_1
  6
Continuous
 62
     7
100
AcDbTrace
 10
1179.516027790209
 20
345.7361348104379
 30
0.0000000000000001
 11
1181.766027790209
 21
345.7361348104379
 31
0.0000000000000001
 12
1180.641027790209
 22
350.236134810438
 32
0.0000000000000001
 13
1180.641027790209
 23
350.236134810438
 33
0.0000000000000001
  0
SOLID
  5
B2B
330
318
100
AcDbEntity
  8
寸法線_1
  6
Continuous
 62
     7
100
AcDbTrace
 10
1182.141027790209
 20
344.2361348104379
 30
0.0000000000000001
 11
1182.141027790209
 21
344.2361348104379
 31
0.0000000000000001
 12
1180.641027790209
 22
345.7361348104379
 32
0.0000000000000001
 13
1181.766027790209
 23
345.7361348104379
 33
0.0000000000000001
  0
SOLID
  5
B2C
330
318
100
AcDbEntity
  8
寸法線_1
  6
Continuous
 62
     7
100
AcDbTrace
 10
1179.141027790209
 20
344.2361348104379
 30
0.0000000000000001
 11
1179.141027790209
 21
344.2361348104379
 31
0.0000000000000001
 12
1179.516027790209
 22
345.7361348104379
 32
0.0000000000000001
 13
1180.641027790209
 23
345.7361348104379
 33
0.0000000000000001
  0
LINE
  5
B2D
330
318
100
AcDbEntity
  8
寸法線_1
  6
Continuous
 62
     7
100
AcDbLine
 10
1180.641027790209
 20
358.2361348104379
 30
0.0000000000000001
 11
1180.641027790209
 21
361.2361348104379
 31
0.0000000000000001
  0
SOLID
  5
B2E
330
318
100
AcDbEntity
  8
寸法線_1
  6
Continuous
 62
     7
100
AcDbTrace
 10
1180.641027790209
 20
362.736134810438
 30
0.0000000000000001
 11
1181.766027790209
 21
362.736134810438
 31
0.0000000000000001
 12
1182.141027790209
 22
364.2361348104379
 32
0.0000000000000001
 13
1182.141027790209
 23
364.2361348104379
 33
0.0000000000000001
  0
SOLID
  5
B2F
330
318
100
AcDbEntity
  8
寸法線_1
  6
Continuous
 62
     7
100
AcDbTrace
 10
1179.516027790209
 20
362.736134810438
 30
0.0000000000000001
 11
1180.641027790209
 21
362.736134810438
 31
0.0000000000000001
 12
1179.141027790209
 22
364.2361348104379
 32
0.0000000000000001
 13
1179.141027790209
 23
364.2361348104379
 33
0.0000000000000001
  0
SOLID
  5
B30
330
318
100
AcDbEntity
  8
寸法線_1
  6
Continuous
 62
     7
100
AcDbTrace
 10
1180.641027790209
 20
358.2361348104379
 30
0.0000000000000001
 11
1180.641027790209
 21
358.2361348104379
 31
0.0000000000000001
 12
1179.516027790209
 22
362.736134810438
 32
0.0000000000000001
 13
1181.766027790209
 23
362.736134810438
 33
0.0000000000000001
  0
LINE
  5
B31
330
318
100
AcDbEntity
  8
寸法線_1
  6
Continuous
 62
     7
100
AcDbLine
 10
1137.060385090014
 20
358.2361348104379
 30
0.0000000000000001
 11
1181.141027790209
 21
358.2361348104379
 31
0.0000000000000001
  0
LINE
  5
B32
330
318
100
AcDbEntity
  8
寸法線_1
  6
Continuous
 62
     7
100
AcDbLine
 10
1074.560385090014
 20
350.236134810438
 30
0.0000000000000001
 11
1181.141027790209
 21
350.236134810438
 31
0.0000000000000001
  0
LINE
  5
B33
330
318
100
AcDbEntity
  8
寸法線_1
  6
Continuous
 62
     7
100
AcDbLine
 10
1180.641027790209
 20
358.2361348104379
 30
0.0000000000000001
 11
1180.641027790209
 21
350.236134810438
 31
0.0000000000000001
  0
TEXT
  5
B34
330
318
100
AcDbEntity
  8
寸法線_1
  6
Continuous
 62
     7
100
AcDbText
 10
1097.5326074182
 20
298.8968035009711
 30
0.0000000000000001
 40
7.055555343627929
  1
70
  7
STYLE1
100
AcDbText
  0
LINE
  5
B35
330
318
100
AcDbEntity
  8
寸法線_1
  6
Continuous
 62
     7
100
AcDbLine
 10
1136.060385090014
 20
296.867868346692
 30
0.0000000000000001
 11
1101.060385090014
 21
296.867868346692
 31
0.0000000000000001
  0
SOLID
  5
B36
330
318
100
AcDbEntity
  8
寸法線_1
  6
Continuous
 62
     7
100
AcDbTrace
 10
1131.560385090014
 20
296.867868346692
 30
0.0000000000000001
 11
1136.060385090014
 21
296.867868346692
 31
0.0000000000000001
 12
1130.060385090014
 22
298.367868346692
 32
0.0000000000000001
 13
1130.060385090014
 23
298.367868346692
 33
0.0000000000000001
  0
SOLID
  5
B37
330
318
100
AcDbEntity
  8
寸法線_1
  6
Continuous
 62
     7
100
AcDbTrace
 10
1130.060385090014
 20
295.367868346692
 30
0.0000000000000001
 11
1130.060385090014
 21
295.367868346692
 31
0.0000000000000001
 12
1131.560385090014
 22
296.867868346692
 32
0.0000000000000001
 13
1136.060385090014
 23
296.867868346692
 33
0.0000000000000001
  0
LINE
  5
B38
330
318
100
AcDbEntity
  8
寸法線_1
  6
Continuous
 62
     7
100
AcDbLine
 10
1066.060385090014
 20
296.867868346692
 30
0.0000000000000001
 11
1101.060385090014
 21
296.867868346692
 31
0.0000000000000001
  0
SOLID
  5
B39
330
318
100
AcDbEntity
  8
寸法線_1
  6
Continuous
 62
     7
100
AcDbTrace
 10
1066.060385090014
 20
296.867868346692
 30
0.0000000000000001
 11
1070.560385090014
 21
296.867868346692
 31
0.0000000000000001
 12
1072.060385090014
 22
298.367868346692
 32
0.0000000000000001
 13
1072.060385090014
 23
298.367868346692
 33
0.0000000000000001
  0
SOLID
  5
B3A
330
318
100
AcDbEntity
  8
寸法線_1
  6
Continuous
 62
     7
100
AcDbTrace
 10
1072.060385090014
 20
295.367868346692
 30
0.0000000000000001
 11
1072.060385090014
 21
295.367868346692
 31
0.0000000000000001
 12
1066.060385090014
 22
296.867868346692
 32
0.0000000000000001
 13
1070.560385090014
 23
296.867868346692
 33
0.0000000000000001
  0
LINE
  5
B3B
330
318
100
AcDbEntity
  8
寸法線_1
  6
Continuous
 62
     7
100
AcDbLine
 10
1066.060385090014
 20
341.7361348104379
 30
0.0000000000000001
 11
1066.060385090014
 21
296.367868346692
 31
0.0000000000000001
  0
LINE
  5
B3C
330
318
100
AcDbEntity
  8
寸法線_1
  6
Continuous
 62
     7
100
AcDbLine
 10
1136.060385090014
 20
319.2361348104379
 30
0.0000000000000001
 11
1136.060385090014
 21
296.367868346692
 31
0.0000000000000001
  0
TEXT
  5
B3D
330
318
100
AcDbEntity
  8
寸法線_1
  6
Continuous
 62
     7
100
AcDbText
 10
607.2117103640259
 20
372.6340365399719
 30
0.0000000000000001
 40
7.055555343627929
  1
R50
 50
330.0000000000001
  7
STYLE1
100
AcDbText
  0
LINE
  5
B3E
330
318
100
AcDbEntity
  8
寸法線_1
  6
Continuous
 62
     7
100
AcDbLine
 10
637.7640937755605
 20
352.1770870655641
 30
0.0000000000000001
 11
605.9916872525234
 21
370.5208945244416
 31
0.0000000000000001
  0
SOLID
  5
B3F
330
318
100
AcDbEntity
  8
寸法線_1
  6
Continuous
 62
     7
100
AcDbTrace
 10
633.8669794585305
 20
354.4270870655641
 30
0.0000000000000001
 11
635.4370981302135
 21
354.4270870655641
 31
0.0000000000000001
 12
633.3179413528539
 22
356.4761251712408
 32
0.0000000000000001
 13
633.3179413528539
 23
356.4761251712408
 33
0.0000000000000001
  0
SOLID
  5
B40
330
318
100
AcDbEntity
  8
寸法線_1
  6
Continuous
 62
     7
100
AcDbTrace
 10
631.817941352854
 20
353.8780489598874
 30
0.0000000000000001
 11
636.0049244773422
 21
353.8780489598874
 31
0.0000000000000001
 12
633.8669794585305
 22
354.4270870655641
 32
0.0000000000000001
 13
635.4370981302135
 23
354.4270870655641
 33
0.0000000000000001
  0
SOLID
  5
B41
330
318
100
AcDbEntity
  8
寸法線_1
  6
Continuous
 62
     7
100
AcDbTrace
 10
637.7640937755605
 20
352.1770870655641
 30
0.0000000000000001
 11
637.7640937755605
 21
352.1770870655641
 31
0.0000000000000001
 12
631.817941352854
 22
353.8780489598874
 32
0.0000000000000001
 13
636.0049244773422
 23
353.8780489598874
 33
0.0000000000000001
  0
TEXT
  5
B42
330
318
100
AcDbEntity
  8
寸法線_1
  6
Continuous
 62
     7
100
AcDbText
 10
642.9421126265335
 20
298.8968035009711
 30
0.0000000000000001
 40
7.055555343627929
  1
20
  7
STYLE1
100
AcDbText
  0
LINE
  5
B43
330
318
100
AcDbEntity
  8
寸法線_1
  6
Continuous
 62
     7
100
AcDbLine
 10
656.0603850900138
 20
296.867868346692
 30
0.0000000000000001
 11
659.0603850900138
 21
296.867868346692
 31
0.0000000000000001
  0
SOLID
  5
B44
330
318
100
AcDbEntity
  8
寸法線_1
  6
Continuous
 62
     7
100
AcDbTrace
 10
656.0603850900138
 20
296.867868346692
 30
0.0000000000000001
 11
660.5603850900138
 21
296.867868346692
 31
0.0000000000000001
 12
662.0603850900138
 22
298.367868346692
 32
0.0000000000000001
 13
662.0603850900138
 23
298.367868346692
 33
0.0000000000000001
  0
SOLID
  5
B45
330
318
100
AcDbEntity
  8
寸法線_1
  6
Continuous
 62
     7
100
AcDbTrace
 10
662.0603850900138
 20
295.367868346692
 30
0.0000000000000001
 11
662.0603850900138
 21
295.367868346692
 31
0.0000000000000001
 12
656.0603850900138
 22
296.867868346692
 32
0.0000000000000001
 13
660.5603850900138
 23
296.867868346692
 33
0.0000000000000001
  0
LINE
  5
B46
330
318
100
AcDbEntity
  8
寸法線_1
  6
Continuous
 62
     7
100
AcDbLine
 10
636.0603850900138
 20
296.867868346692
 30
0.0000000000000001
 11
633.0603850900138
 21
296.867868346692
 31
0.0000000000000001
  0
SOLID
  5
B47
330
318
100
AcDbEntity
  8
寸法線_1
  6
Continuous
 62
     7
100
AcDbTrace
 10
631.5603850900138
 20
296.867868346692
 30
0.0000000000000001
 11
636.0603850900138
 21
296.867868346692
 31
0.0000000000000001
 12
630.0603850900138
 22
298.367868346692
 32
0.0000000000000001
 13
630.0603850900138
 23
298.367868346692
 33
0.0000000000000001
  0
SOLID
  5
B48
330
318
100
AcDbEntity
  8
寸法線_1
  6
Continuous
 62
     7
100
AcDbTrace
 10
630.0603850900138
 20
295.367868346692
 30
0.0000000000000001
 11
630.0603850900138
 21
295.367868346692
 31
0.0000000000000001
 12
631.5603850900138
 22
296.867868346692
 32
0.0000000000000001
 13
636.0603850900138
 23
296.867868346692
 33
0.0000000000000001
  0
LINE
  5
B49
330
318
100
AcDbEntity
  8
寸法線_1
  6
Continuous
 62
     7
100
AcDbLine
 10
636.0603850900138
 20
338.236134810438
 30
0.0000000000000001
 11
636.0603850900138
 21
296.367868346692
 31
0.0000000000000001
  0
LINE
  5
B4A
330
318
100
AcDbEntity
  8
寸法線_1
  6
Continuous
 62
     7
100
AcDbLine
 10
656.0603850900138
 20
330.7361348104379
 30
0.0000000000000001
 11
656.0603850900138
 21
296.367868346692
 31
0.0000000000000001
  0
LINE
  5
B4B
330
318
100
AcDbEntity
  8
寸法線_1
  6
Continuous
 62
     7
100
AcDbLine
 10
636.0603850900138
 20
296.867868346692
 30
0.0000000000000001
 11
656.0603850900138
 21
296.867868346692
 31
0.0000000000000001
  0
TEXT
  5
B4C
330
318
100
AcDbEntity
  8
寸法線_1
  6
Continuous
 62
     7
100
AcDbText
 10
718.2687185822926
 20
298.8968035009711
 30
0.0000000000000001
 40
7.055555343627929
  1
135
  7
STYLE1
100
AcDbText
  0
LINE
  5
B4D
330
318
100
AcDbEntity
  8
寸法線_1
  6
Continuous
 62
     7
100
AcDbLine
 10
791.060385090014
 20
296.867868346692
 30
0.0000000000000001
 11
723.560385090014
 21
296.867868346692
 31
0.0000000000000001
  0
SOLID
  5
B4E
330
318
100
AcDbEntity
  8
寸法線_1
  6
Continuous
 62
     7
100
AcDbTrace
 10
786.560385090014
 20
296.867868346692
 30
0.0000000000000001
 11
791.060385090014
 21
296.867868346692
 31
0.0000000000000001
 12
785.0603850900141
 22
298.367868346692
 32
0.0000000000000001
 13
785.0603850900141
 23
298.367868346692
 33
0.0000000000000001
  0
SOLID
  5
B4F
330
318
100
AcDbEntity
  8
寸法線_1
  6
Continuous
 62
     7
100
AcDbTrace
 10
785.0603850900141
 20
295.367868346692
 30
0.0000000000000001
 11
785.0603850900141
 21
295.367868346692
 31
0.0000000000000001
 12
786.560385090014
 22
296.867868346692
 32
0.0000000000000001
 13
791.060385090014
 23
296.867868346692
 33
0.0000000000000001
  0
LINE
  5
B50
330
318
100
AcDbEntity
  8
寸法線_1
  6
Continuous
 62
     7
100
AcDbLine
 10
656.0603850900138
 20
296.867868346692
 30
0.0000000000000001
 11
723.560385090014
 21
296.867868346692
 31
0.0000000000000001
  0
SOLID
  5
B51
330
318
100
AcDbEntity
  8
寸法線_1
  6
Continuous
 62
     7
100
AcDbTrace
 10
656.0603850900138
 20
296.867868346692
 30
0.0000000000000001
 11
660.5603850900138
 21
296.867868346692
 31
0.0000000000000001
 12
662.0603850900138
 22
298.367868346692
 32
0.0000000000000001
 13
662.0603850900138
 23
298.367868346692
 33
0.0000000000000001
  0
SOLID
  5
B52
330
318
100
AcDbEntity
  8
寸法線_1
  6
Continuous
 62
     7
100
AcDbTrace
 10
662.0603850900138
 20
295.367868346692
 30
0.0000000000000001
 11
662.0603850900138
 21
295.367868346692
 31
0.0000000000000001
 12
656.0603850900138
 22
296.867868346692
 32
0.0000000000000001
 13
660.5603850900138
 23
296.867868346692
 33
0.0000000000000001
  0
LINE
  5
B53
330
318
100
AcDbEntity
  8
寸法線_1
  6
Continuous
 62
     7
100
AcDbLine
 10
656.0603850900138
 20
330.7361348104379
 30
0.0000000000000001
 11
656.0603850900138
 21
296.367868346692
 31
0.0000000000000001
  0
LINE
  5
B54
330
318
100
AcDbEntity
  8
寸法線_1
  6
Continuous
 62
     7
100
AcDbLine
 10
791.060385090014
 20
341.7361348104379
 30
0.0000000000000001
 11
791.060385090014
 21
296.367868346692
 31
0.0000000000000001
  0
TEXT
  5
B55
330
318
100
AcDbEntity
  8
寸法線_1
  6
Continuous
 62
     7
100
AcDbText
 10
988.9981165373658
 20
389.7036047916704
 30
0.0000000000000001
 40
7.055555343627929
  1
4－\U+03C66穴　皿\U+03C611
 50
335.0000000000033
  7
STYLE1
100
AcDbText
  0
LINE
  5
B56
330
318
100
AcDbEntity
  8
寸法線_1
  6
Continuous
 62
     7
100
AcDbLine
 10
1061.445638503206
 20
353.2284773609406
 30
0.0000000000000001
 11
985.9524739875169
 21
388.4315181129565
 31
0.0000000000000001
  0
SOLID
  5
B57
330
318
100
AcDbEntity
  8
寸法線_1
  6
Continuous
 62
     7
100
AcDbTrace
 10
1057.367253461541
 20
355.1302595387733
 30
0.0000000000000001
 11
1058.790633891887
 21
355.3812399124556
 31
0.0000000000000001
 12
1056.641719173597
 22
357.1236486119393
 32
0.0000000000000001
 13
1056.641719173597
 23
357.1236486119393
 33
0.0000000000000001
  0
SOLID
  5
B58
330
318
100
AcDbEntity
  8
寸法線_1
  6
Continuous
 62
     7
100
AcDbTrace
 10
1055.373864388376
 20
354.4047252508294
 30
0.0000000000000001
 11
1059.169545535963
 21
355.0740062473155
 31
0.0000000000000001
 12
1057.367253461541
 22
355.1302595387733
 32
0.0000000000000001
 13
1058.790633891887
 23
355.3812399124556
 33
0.0000000000000001
  0
SOLID
  5
B59
330
318
100
AcDbEntity
  8
寸法線_1
  6
Continuous
 62
     7
100
AcDbTrace
 10
1061.445638503206
 20
353.2284773609405
 30
0.0000000000000001
 11
1061.445638503206
 21
353.2284773609405
 31
0.0000000000000001
 12
1055.373864388376
 22
354.4047252508294
 32
0.0000000000000001
 13
1059.169545535963
 23
355.0740062473155
 33
0.0000000000000001
  0
LINE
  5
B5A
330
318
100
AcDbEntity
  8
0
  6
Continuous
 62
     5
100
AcDbLine
 10
636.0603850900136
 20
664.5873596199442
 30
0.0
 11
636.0603850900136
 21
660.0873596199441
 31
0.0
  0
LINE
  5
B5B
330
318
100
AcDbEntity
  8
0
  6
Continuous
 62
     5
100
AcDbLine
 10
1131.560385090013
 20
656.5873596199442
 30
0.0
 11
1131.560385090013
 21
414.587359619944
 31
0.0
  0
LINE
  5
B5C
330
318
100
AcDbEntity
  8
0
  6
Continuous
 62
     5
100
AcDbLine
 10
1131.560385090013
 20
414.587359619944
 30
0.0
 11
1136.060385090013
 21
414.587359619944
 31
0.0
  0
ARC
  5
B5D
330
318
100
AcDbEntity
  8
0
  6
Continuous
 62
     5
100
AcDbCircle
 10
1128.060385090013
 20
656.5873596199442
 30
0.0
 40
7.999999999999998
100
AcDbArc
 50
0.0
 51
90.0
  0
ARC
  5
B5E
330
318
100
AcDbEntity
  8
0
  6
Continuous
 62
     5
100
AcDbCircle
 10
1128.060385090013
 20
656.5873596199442
 30
0.0
 40
3.5
100
AcDbArc
 50
0.0
 51
90.0
  0
LINE
  5
B5F
330
318
100
AcDbEntity
  8
0
  6
Continuous
 62
     5
100
AcDbLine
 10
636.0603850900136
 20
664.5873596199442
 30
0.0
 11
1128.060385090013
 21
664.5873596199442
 31
0.0
  0
LINE
  5
B60
330
318
100
AcDbEntity
  8
0
  6
Continuous
 62
     5
100
AcDbLine
 10
636.0603850900136
 20
660.0873596199441
 30
0.0
 11
1128.060385090013
 21
660.0873596199441
 31
0.0
  0
LINE
  5
B61
330
318
100
AcDbEntity
  8
0
  6
Continuous
 62
     5
100
AcDbLine
 10
1136.060385090013
 20
656.5873596199442
 30
0.0
 11
1136.060385090013
 21
414.587359619944
 31
0.0
  0
CIRCLE
  5
B62
330
318
100
AcDbEntity
  8
0
  6
Continuous
 62
     5
100
AcDbCircle
 10
656.060385090014
 20
339.2361348104379
 30
0.0
 40
5.499999999999964
  0
CIRCLE
  5
B63
330
318
100
AcDbEntity
  8
0
  6
Continuous
 62
     5
100
AcDbCircle
 10
656.060385090014
 20
339.2361348104379
 30
0.0
 40
3.000000000000016
  0
CIRCLE
  5
B64
330
318
100
AcDbEntity
  8
0
  6
Continuous
 62
     5
100
AcDbCircle
 10
791.060385090014
 20
350.236134810438
 30
0.0
 40
5.499999999999964
  0
CIRCLE
  5
B65
330
318
100
AcDbEntity
  8
0
  6
Continuous
 62
     5
100
AcDbCircle
 10
791.060385090014
 20
350.236134810438
 30
0.0
 40
3.000000000000016
  0
CIRCLE
  5
B66
330
318
100
AcDbEntity
  8
0
  6
Continuous
 62
     5
100
AcDbCircle
 10
931.060385090014
 20
328.2361348104379
 30
0.0
 40
3.000000000000016
  0
CIRCLE
  5
B67
330
318
100
AcDbEntity
  8
0
  6
Continuous
 62
     5
100
AcDbCircle
 10
931.060385090014
 20
328.2361348104379
 30
0.0
 40
5.500000000000124
  0
CIRCLE
  5
B68
330
318
100
AcDbEntity
  8
0
  6
Continuous
 62
     5
100
AcDbCircle
 10
1066.060385090014
 20
350.236134810438
 30
0.0
 40
3.000000000000016
  0
CIRCLE
  5
B69
330
318
100
AcDbEntity
  8
0
  6
Continuous
 62
     5
100
AcDbCircle
 10
1066.060385090014
 20
350.236134810438
 30
0.0
 40
5.500000000000124
  0
LINE
  5
B6A
330
318
100
AcDbEntity
  8
0
  6
CENTER
 62
     3
100
AcDbLine
 10
1058.560385090014
 20
350.236134810438
 30
0.0
 11
1073.560385090014
 21
350.236134810438
 31
0.0
  0
LINE
  5
B6B
330
318
100
AcDbEntity
  8
0
  6
CENTER
 62
     3
100
AcDbLine
 10
1066.060385090014
 20
357.7361348104379
 30
0.0
 11
1066.060385090014
 21
342.7361348104379
 31
0.0
  0
LINE
  5
B6C
330
318
100
AcDbEntity
  8
0
  6
CENTER
 62
     3
100
AcDbLine
 10
923.560385090014
 20
328.2361348104379
 30
0.0
 11
938.5603850900141
 21
328.2361348104379
 31
0.0
  0
LINE
  5
B6D
330
318
100
AcDbEntity
  8
0
  6
CENTER
 62
     3
100
AcDbLine
 10
931.060385090014
 20
335.736134810438
 30
0.0
 11
931.060385090014
 21
320.7361348104379
 31
0.0
  0
LINE
  5
B6E
330
318
100
AcDbEntity
  8
0
  6
CENTER
 62
     3
100
AcDbLine
 10
783.560385090014
 20
350.236134810438
 30
0.0
 11
798.560385090014
 21
350.236134810438
 31
0.0
  0
LINE
  5
B6F
330
318
100
AcDbEntity
  8
0
  6
CENTER
 62
     3
100
AcDbLine
 10
791.060385090014
 20
357.7361348104379
 30
0.0
 11
791.060385090014
 21
342.7361348104379
 31
0.0
  0
LINE
  5
B70
330
318
100
AcDbEntity
  8
0
  6
CENTER
 62
     3
100
AcDbLine
 10
648.560385090014
 20
339.2361348104379
 30
0.0
 11
663.560385090014
 21
339.2361348104379
 31
0.0
  0
LINE
  5
B71
330
318
100
AcDbEntity
  8
0
  6
CENTER
 62
     3
100
AcDbLine
 10
656.060385090014
 20
346.7361348104379
 30
0.0
 11
656.060385090014
 21
331.7361348104379
 31
0.0
  0
LINE
  5
B72
330
318
100
AcDbEntity
  8
0
  6
CENTER
 62
     3
100
AcDbLine
 10
1141.560385090013
 20
339.2361348104379
 30
0.0
 11
630.5603850900138
 21
339.2361348104379
 31
0.0
  0
LINE
  5
B73
330
318
100
AcDbEntity
  8
0
  6
Continuous
 62
     5
100
AcDbLine
 10
1136.060385090013
 20
358.2361348104379
 30
0.0
 11
1136.060385090013
 21
320.2361348104379
 31
0.0
  0
LINE
  5
B74
330
318
100
AcDbEntity
  8
0
  6
Continuous
 62
     5
100
AcDbLine
 10
1131.560385090013
 20
358.2361348104379
 30
0.0
 11
1131.560385090013
 21
320.2361348104379
 31
0.0
  0
LINE
  5
B75
330
318
100
AcDbEntity
  8
0
  6
Continuous
 62
     5
100
AcDbLine
 10
757.6065988153486
 20
341.4861348104379
 30
0.0
 11
757.6065988153486
 21
336.9861348104379
 31
0.0
  0
LINE
  5
B76
330
318
100
AcDbEntity
  8
0
  6
Continuous
 62
     5
100
AcDbLine
 10
1131.560385090013
 20
341.4861348104379
 30
0.0
 11
757.6065988153486
 21
341.4861348104379
 31
0.0
  0
LINE
  5
B77
330
318
100
AcDbEntity
  8
0
  6
Continuous
 62
     5
100
AcDbLine
 10
1131.560385090013
 20
336.9861348104379
 30
0.0
 11
757.6065988153486
 21
336.9861348104379
 31
0.0
  0
ARC
  5
B78
330
318
100
AcDbEntity
  8
0
  6
Continuous
 62
     5
100
AcDbCircle
 10
686.0603850900138
 20
339.2361348104381
 30
0.0
 40
49.99999999999996
100
AcDbArc
 50
157.6663173421949
 51
202.3336826578054
  0
LINE
  5
B79
330
318
100
AcDbEntity
  8
0
  6
Continuous
 62
     5
100
AcDbLine
 10
1136.060385090013
 20
358.2361348104379
 30
0.0
 11
639.8110607706248
 21
358.2361348104379
 31
0.0
  0
LINE
  5
B7A
330
318
100
AcDbEntity
  8
0
  6
Continuous
 62
     5
100
AcDbLine
 10
1136.060385090013
 20
320.2361348104379
 30
0.0
 11
639.811060770625
 21
320.2361348104379
 31
0.0
  0
TEXT
  5
B7B
330
318
100
AcDbEntity
  8
寸法線_1
  6
Continuous
 62
     7
100
AcDbText
 10
580.3853082413033
 20
646.0595819481302
 30
0.0000000000000001
 40
7.055555343627929
  1
30
 50
90.0
  7
STYLE1
100
AcDbText
  0
LINE
  5
B7C
330
318
100
AcDbEntity
  8
寸法線_1
  6
Continuous
 62
     7
100
AcDbLine
 10
582.4142433955824
 20
634.5873596199441
 30
0.0000000000000001
 11
582.4142433955824
 21
649.5873596199442
 31
0.0000000000000001
  0
SOLID
  5
B7D
330
318
100
AcDbEntity
  8
寸法線_1
  6
Continuous
 62
     7
100
AcDbTrace
 10
582.4142433955824
 20
639.0873596199441
 30
0.0000000000000001
 11
583.5392433955823
 21
639.0873596199441
 31
0.0000000000000001
 12
583.9142433955823
 22
640.5873596199442
 32
0.0000000000000001
 13
583.9142433955823
 23
640.5873596199442
 33
0.0000000000000001
  0
SOLID
  5
B7E
330
318
100
AcDbEntity
  8
寸法線_1
  6
Continuous
 62
     7
100
AcDbTrace
 10
581.2892433955823
 20
639.0873596199441
 30
0.0000000000000001
 11
582.4142433955824
 21
639.0873596199441
 31
0.0000000000000001
 12
580.9142433955823
 22
640.5873596199442
 32
0.0000000000000001
 13
580.9142433955823
 23
640.5873596199442
 33
0.0000000000000001
  0
SOLID
  5
B7F
330
318
100
AcDbEntity
  8
寸法線_1
  6
Continuous
 62
     7
100
AcDbTrace
 10
582.4142433955824
 20
634.5873596199441
 30
0.0000000000000001
 11
582.4142433955824
 21
634.5873596199441
 31
0.0000000000000001
 12
581.2892433955823
 22
639.0873596199441
 32
0.0000000000000001
 13
583.5392433955823
 23
639.0873596199441
 33
0.0000000000000001
  0
LINE
  5
B80
330
318
100
AcDbEntity
  8
寸法線_1
  6
Continuous
 62
     7
100
AcDbLine
 10
582.4142433955824
 20
664.5873596199442
 30
0.0000000000000001
 11
582.4142433955824
 21
649.5873596199442
 31
0.0000000000000001
  0
SOLID
  5
B81
330
318
100
AcDbEntity
  8
寸法線_1
  6
Continuous
 62
     7
100
AcDbTrace
 10
581.2892433955823
 20
660.0873596199441
 30
0.0000000000000001
 11
583.5392433955823
 21
660.0873596199441
 31
0.0000000000000001
 12
582.4142433955824
 22
664.5873596199442
 32
0.0000000000000001
 13
582.4142433955824
 23
664.5873596199442
 33
0.0000000000000001
  0
SOLID
  5
B82
330
318
100
AcDbEntity
  8
寸法線_1
  6
Continuous
 62
     7
100
AcDbTrace
 10
583.9142433955823
 20
658.5873596199442
 30
0.0000000000000001
 11
583.9142433955823
 21
658.5873596199442
 31
0.0000000000000001
 12
582.4142433955824
 22
660.0873596199441
 32
0.0000000000000001
 13
583.5392433955823
 23
660.0873596199441
 33
0.0000000000000001
  0
SOLID
  5
B83
330
318
100
AcDbEntity
  8
寸法線_1
  6
Continuous
 62
     7
100
AcDbTrace
 10
580.9142433955823
 20
658.5873596199442
 30
0.0000000000000001
 11
580.9142433955823
 21
658.5873596199442
 31
0.0000000000000001
 12
581.2892433955823
 22
660.0873596199441
 32
0.0000000000000001
 13
582.4142433955824
 23
660.0873596199441
 33
0.0000000000000001
  0
LINE
  5
B84
330
318
100
AcDbEntity
  8
寸法線_1
  6
Continuous
 62
     7
100
AcDbLine
 10
561.4338640590572
 20
664.5873596199442
 30
0.0000000000000001
 11
582.9142433955824
 21
664.5873596199442
 31
0.0000000000000001
  0
LINE
  5
B85
330
318
100
AcDbEntity
  8
寸法線_1
  6
Continuous
 62
     7
100
AcDbLine
 10
538.9338640590572
 20
634.5873596199441
 30
0.0000000000000001
 11
582.9142433955824
 21
634.5873596199441
 31
0.0000000000000001
  0
TEXT
  5
B86
330
318
100
AcDbEntity
  8
寸法線_1
  6
Continuous
 62
     7
100
AcDbText
 10
580.3853082413033
 20
421.05958194813
 30
0.0000000000000001
 40
7.055555343627929
  1
20
 50
90.0
  7
STYLE1
100
AcDbText
  0
LINE
  5
B87
330
318
100
AcDbEntity
  8
寸法線_1
  6
Continuous
 62
     7
100
AcDbLine
 10
582.4142433955824
 20
414.5873596199439
 30
0.0000000000000001
 11
582.4142433955824
 21
411.587359619944
 31
0.0000000000000001
  0
SOLID
  5
B88
330
318
100
AcDbEntity
  8
寸法線_1
  6
Continuous
 62
     7
100
AcDbTrace
 10
581.2892433955823
 20
410.087359619944
 30
0.0000000000000001
 11
583.5392433955823
 21
410.087359619944
 31
0.0000000000000001
 12
582.4142433955824
 22
414.5873596199439
 32
0.0000000000000001
 13
582.4142433955824
 23
414.5873596199439
 33
0.0000000000000001
  0
SOLID
  5
B89
330
318
100
AcDbEntity
  8
寸法線_1
  6
Continuous
 62
     7
100
AcDbTrace
 10
583.9142433955823
 20
408.587359619944
 30
0.0000000000000001
 11
583.9142433955823
 21
408.587359619944
 31
0.0000000000000001
 12
582.4142433955824
 22
410.087359619944
 32
0.0000000000000001
 13
583.5392433955823
 23
410.087359619944
 33
0.0000000000000001
  0
SOLID
  5
B8A
330
318
100
AcDbEntity
  8
寸法線_1
  6
Continuous
 62
     7
100
AcDbTrace
 10
580.9142433955823
 20
408.587359619944
 30
0.0000000000000001
 11
580.9142433955823
 21
408.587359619944
 31
0.0000000000000001
 12
581.2892433955823
 22
410.087359619944
 32
0.0000000000000001
 13
582.4142433955824
 23
410.087359619944
 33
0.0000000000000001
  0
LINE
  5
B8B
330
318
100
AcDbEntity
  8
寸法線_1
  6
Continuous
 62
     7
100
AcDbLine
 10
582.4142433955824
 20
434.587359619944
 30
0.0000000000000001
 11
582.4142433955824
 21
437.5873596199439
 31
0.0000000000000001
  0
SOLID
  5
B8C
330
318
100
AcDbEntity
  8
寸法線_1
  6
Continuous
 62
     7
100
AcDbTrace
 10
582.4142433955824
 20
439.087359619944
 30
0.0000000000000001
 11
583.5392433955823
 21
439.087359619944
 31
0.0000000000000001
 12
583.9142433955823
 22
440.5873596199439
 32
0.0000000000000001
 13
583.9142433955823
 23
440.5873596199439
 33
0.0000000000000001
  0
SOLID
  5
B8D
330
318
100
AcDbEntity
  8
寸法線_1
  6
Continuous
 62
     7
100
AcDbTrace
 10
581.2892433955823
 20
439.087359619944
 30
0.0000000000000001
 11
582.4142433955824
 21
439.087359619944
 31
0.0000000000000001
 12
580.9142433955823
 22
440.5873596199439
 32
0.0000000000000001
 13
580.9142433955823
 23
440.5873596199439
 33
0.0000000000000001
  0
SOLID
  5
B8E
330
318
100
AcDbEntity
  8
寸法線_1
  6
Continuous
 62
     7
100
AcDbTrace
 10
582.4142433955824
 20
434.587359619944
 30
0.0000000000000001
 11
582.4142433955824
 21
434.587359619944
 31
0.0000000000000001
 12
581.2892433955823
 22
439.087359619944
 32
0.0000000000000001
 13
583.5392433955823
 23
439.087359619944
 33
0.0000000000000001
  0
LINE
  5
B8F
330
318
100
AcDbEntity
  8
寸法線_1
  6
Continuous
 62
     7
100
AcDbLine
 10
549.9338640590572
 20
434.587359619944
 30
0.0000000000000001
 11
582.9142433955824
 21
434.587359619944
 31
0.0000000000000001
  0
LINE
  5
B90
330
318
100
AcDbEntity
  8
寸法線_1
  6
Continuous
 62
     7
100
AcDbLine
 10
542.4338640590574
 20
414.5873596199439
 30
0.0000000000000001
 11
582.9142433955824
 21
414.5873596199439
 31
0.0000000000000001
  0
LINE
  5
B91
330
318
100
AcDbEntity
  8
寸法線_1
  6
Continuous
 62
     7
100
AcDbLine
 10
582.4142433955824
 20
434.587359619944
 30
0.0000000000000001
 11
582.4142433955824
 21
414.5873596199439
 31
0.0000000000000001
  0
TEXT
  5
B92
330
318
100
AcDbEntity
  8
寸法線_1
  6
Continuous
 62
     7
100
AcDbText
 10
537.9060863872432
 20
715.5225257007368
 30
0.0000000000000001
 40
7.055555343627929
  1
38
  7
STYLE1
100
AcDbText
  0
LINE
  5
B93
330
318
100
AcDbEntity
  8
寸法線_1
  6
Continuous
 62
     7
100
AcDbLine
 10
560.4338640590571
 20
713.4935905464579
 30
0.0000000000000001
 11
541.4338640590572
 21
713.4935905464579
 31
0.0000000000000001
  0
SOLID
  5
B94
330
318
100
AcDbEntity
  8
寸法線_1
  6
Continuous
 62
     7
100
AcDbTrace
 10
555.9338640590572
 20
713.4935905464579
 30
0.0000000000000001
 11
560.4338640590571
 21
713.4935905464579
 31
0.0000000000000001
 12
554.4338640590572
 22
714.9935905464579
 32
0.0000000000000001
 13
554.4338640590572
 23
714.9935905464579
 33
0.0000000000000001
  0
SOLID
  5
B95
330
318
100
AcDbEntity
  8
寸法線_1
  6
Continuous
 62
     7
100
AcDbTrace
 10
554.4338640590572
 20
711.9935905464578
 30
0.0000000000000001
 11
554.4338640590572
 21
711.9935905464578
 31
0.0000000000000001
 12
555.9338640590572
 22
713.4935905464579
 32
0.0000000000000001
 13
560.4338640590571
 23
713.4935905464579
 33
0.0000000000000001
  0
LINE
  5
B96
330
318
100
AcDbEntity
  8
寸法線_1
  6
Continuous
 62
     7
100
AcDbLine
 10
522.4338640590572
 20
713.4935905464579
 30
0.0000000000000001
 11
541.4338640590572
 21
713.4935905464579
 31
0.0000000000000001
  0
SOLID
  5
B97
330
318
100
AcDbEntity
  8
寸法線_1
  6
Continuous
 62
     7
100
AcDbTrace
 10
522.4338640590572
 20
713.4935905464579
 30
0.0000000000000001
 11
526.9338640590571
 21
713.4935905464579
 31
0.0000000000000001
 12
528.4338640590572
 22
714.9935905464579
 32
0.0000000000000001
 13
528.4338640590572
 23
714.9935905464579
 33
0.0000000000000001
  0
SOLID
  5
B98
330
318
100
AcDbEntity
  8
寸法線_1
  6
Continuous
 62
     7
100
AcDbTrace
 10
528.4338640590572
 20
711.9935905464578
 30
0.0000000000000001
 11
528.4338640590572
 21
711.9935905464578
 31
0.0000000000000001
 12
522.4338640590572
 22
713.4935905464579
 32
0.0000000000000001
 13
526.9338640590571
 23
713.4935905464579
 33
0.0000000000000001
  0
LINE
  5
B99
330
318
100
AcDbEntity
  8
寸法線_1
  6
Continuous
 62
     7
100
AcDbLine
 10
522.4338640590572
 20
665.5873596199442
 30
0.0000000000000001
 11
522.4338640590572
 21
713.9935905464579
 31
0.0000000000000001
  0
LINE
  5
B9A
330
318
100
AcDbEntity
  8
寸法線_1
  6
Continuous
 62
     7
100
AcDbLine
 10
560.4338640590571
 20
665.5873596199442
 30
0.0000000000000001
 11
560.4338640590571
 21
713.9935905464579
 31
0.0000000000000001
  0
TEXT
  5
B9B
330
318
100
AcDbEntity
  8
寸法線_1
  6
Continuous
 62
     7
100
AcDbText
 10
536.1421975513362
 20
687.0667380420455
 30
0.0000000000000001
 40
7.055555343627929
  1
4.5
  7
STYLE1
100
AcDbText
  0
LINE
  5
B9C
330
318
100
AcDbEntity
  8
寸法線_1
  6
Continuous
 62
     7
100
AcDbLine
 10
543.6838640590572
 20
685.0378028877664
 30
0.0000000000000001
 11
546.6838640590572
 21
685.0378028877664
 31
0.0000000000000001
  0
SOLID
  5
B9D
330
318
100
AcDbEntity
  8
寸法線_1
  6
Continuous
 62
     7
100
AcDbTrace
 10
543.6838640590572
 20
685.0378028877664
 30
0.0000000000000001
 11
548.1838640590572
 21
685.0378028877664
 31
0.0000000000000001
 12
549.6838640590572
 22
686.5378028877664
 32
0.0000000000000001
 13
549.6838640590572
 23
686.5378028877664
 33
0.0000000000000001
  0
SOLID
  5
B9E
330
318
100
AcDbEntity
  8
寸法線_1
  6
Continuous
 62
     7
100
AcDbTrace
 10
549.6838640590572
 20
683.5378028877665
 30
0.0000000000000001
 11
549.6838640590572
 21
683.5378028877665
 31
0.0000000000000001
 12
543.6838640590572
 22
685.0378028877664
 32
0.0000000000000001
 13
548.1838640590572
 23
685.0378028877664
 33
0.0000000000000001
  0
LINE
  5
B9F
330
318
100
AcDbEntity
  8
寸法線_1
  6
Continuous
 62
     7
100
AcDbLine
 10
539.1838640590572
 20
685.0378028877664
 30
0.0000000000000001
 11
536.1838640590572
 21
685.0378028877664
 31
0.0000000000000001
  0
SOLID
  5
BA0
330
318
100
AcDbEntity
  8
寸法線_1
  6
Continuous
 62
     7
100
AcDbTrace
 10
534.6838640590572
 20
685.0378028877664
 30
0.0000000000000001
 11
539.1838640590572
 21
685.0378028877664
 31
0.0000000000000001
 12
533.1838640590571
 22
686.5378028877664
 32
0.0000000000000001
 13
533.1838640590571
 23
686.5378028877664
 33
0.0000000000000001
  0
SOLID
  5
BA1
330
318
100
AcDbEntity
  8
寸法線_1
  6
Continuous
 62
     7
100
AcDbTrace
 10
533.1838640590571
 20
683.5378028877665
 30
0.0000000000000001
 11
533.1838640590571
 21
683.5378028877665
 31
0.0000000000000001
 12
534.6838640590572
 22
685.0378028877664
 32
0.0000000000000001
 13
539.1838640590572
 23
685.0378028877664
 33
0.0000000000000001
  0
LINE
  5
BA2
330
318
100
AcDbEntity
  8
寸法線_1
  6
Continuous
 62
     7
100
AcDbLine
 10
539.1838640590572
 20
661.0873596199442
 30
0.0000000000000001
 11
539.1838640590572
 21
685.5378028877664
 31
0.0000000000000001
  0
LINE
  5
BA3
330
318
100
AcDbEntity
  8
寸法線_1
  6
Continuous
 62
     7
100
AcDbLine
 10
543.6838640590572
 20
661.0873596199442
 30
0.0000000000000001
 11
543.6838640590572
 21
685.5378028877664
 31
0.0000000000000001
  0
LINE
  5
BA4
330
318
100
AcDbEntity
  8
寸法線_1
  6
Continuous
 62
     7
100
AcDbLine
 10
539.1838640590572
 20
685.0378028877664
 30
0.0000000000000001
 11
543.6838640590572
 21
685.0378028877664
 31
0.0000000000000001
  0
TEXT
  5
BA5
330
318
100
AcDbEntity
  8
寸法線_1
  6
Continuous
 62
     7
100
AcDbText
 10
580.3853082413033
 20
621.0595819481301
 30
0.0000000000000001
 40
7.055555343627929
  1
20
 50
90.0
  7
STYLE1
100
AcDbText
  0
LINE
  5
BA6
330
318
100
AcDbEntity
  8
寸法線_1
  6
Continuous
 62
     7
100
AcDbLine
 10
582.4142433955824
 20
614.5873596199439
 30
0.0000000000000001
 11
582.4142433955824
 21
611.5873596199439
 31
0.0000000000000001
  0
SOLID
  5
BA7
330
318
100
AcDbEntity
  8
寸法線_1
  6
Continuous
 62
     7
100
AcDbTrace
 10
581.2892433955823
 20
610.087359619944
 30
0.0000000000000001
 11
583.5392433955823
 21
610.087359619944
 31
0.0000000000000001
 12
582.4142433955824
 22
614.5873596199439
 32
0.0000000000000001
 13
582.4142433955824
 23
614.5873596199439
 33
0.0000000000000001
  0
SOLID
  5
BA8
330
318
100
AcDbEntity
  8
寸法線_1
  6
Continuous
 62
     7
100
AcDbTrace
 10
583.9142433955823
 20
608.587359619944
 30
0.0000000000000001
 11
583.9142433955823
 21
608.587359619944
 31
0.0000000000000001
 12
582.4142433955824
 22
610.087359619944
 32
0.0000000000000001
 13
583.5392433955823
 23
610.087359619944
 33
0.0000000000000001
  0
SOLID
  5
BA9
330
318
100
AcDbEntity
  8
寸法線_1
  6
Continuous
 62
     7
100
AcDbTrace
 10
580.9142433955823
 20
608.587359619944
 30
0.0000000000000001
 11
580.9142433955823
 21
608.587359619944
 31
0.0000000000000001
 12
581.2892433955823
 22
610.087359619944
 32
0.0000000000000001
 13
582.4142433955824
 23
610.087359619944
 33
0.0000000000000001
  0
LINE
  5
BAA
330
318
100
AcDbEntity
  8
寸法線_1
  6
Continuous
 62
     7
100
AcDbLine
 10
582.4142433955824
 20
634.5873596199441
 30
0.0000000000000001
 11
582.4142433955824
 21
637.5873596199442
 31
0.0000000000000001
  0
SOLID
  5
BAB
330
318
100
AcDbEntity
  8
寸法線_1
  6
Continuous
 62
     7
100
AcDbTrace
 10
582.4142433955824
 20
639.0873596199441
 30
0.0000000000000001
 11
583.5392433955823
 21
639.0873596199441
 31
0.0000000000000001
 12
583.9142433955823
 22
640.5873596199442
 32
0.0000000000000001
 13
583.9142433955823
 23
640.5873596199442
 33
0.0000000000000001
  0
SOLID
  5
BAC
330
318
100
AcDbEntity
  8
寸法線_1
  6
Continuous
 62
     7
100
AcDbTrace
 10
581.2892433955823
 20
639.0873596199441
 30
0.0000000000000001
 11
582.4142433955824
 21
639.0873596199441
 31
0.0000000000000001
 12
580.9142433955823
 22
640.5873596199442
 32
0.0000000000000001
 13
580.9142433955823
 23
640.5873596199442
 33
0.0000000000000001
  0
SOLID
  5
BAD
330
318
100
AcDbEntity
  8
寸法線_1
  6
Continuous
 62
     7
100
AcDbTrace
 10
582.4142433955824
 20
634.5873596199441
 30
0.0000000000000001
 11
582.4142433955824
 21
634.5873596199441
 31
0.0000000000000001
 12
581.2892433955823
 22
639.0873596199441
 32
0.0000000000000001
 13
583.5392433955823
 23
639.0873596199441
 33
0.0000000000000001
  0
LINE
  5
BAE
330
318
100
AcDbEntity
  8
寸法線_1
  6
Continuous
 62
     7
100
AcDbLine
 10
538.9338640590572
 20
634.5873596199441
 30
0.0000000000000001
 11
582.9142433955824
 21
634.5873596199441
 31
0.0000000000000001
  0
LINE
  5
BAF
330
318
100
AcDbEntity
  8
寸法線_1
  6
Continuous
 62
     7
100
AcDbLine
 10
560.9338640590571
 20
614.5873596199439
 30
0.0000000000000001
 11
582.9142433955824
 21
614.5873596199439
 31
0.0000000000000001
  0
LINE
  5
BB0
330
318
100
AcDbEntity
  8
寸法線_1
  6
Continuous
 62
     7
100
AcDbLine
 10
582.4142433955824
 20
634.5873596199441
 30
0.0000000000000001
 11
582.4142433955824
 21
614.5873596199439
 31
0.0000000000000001
  0
TEXT
  5
BB1
330
318
100
AcDbEntity
  8
寸法線_1
  6
Continuous
 62
     7
100
AcDbText
 10
580.3853082413033
 20
601.05958194813
 30
0.0000000000000001
 40
7.055555343627929
  1
20
 50
90.0
  7
STYLE1
100
AcDbText
  0
LINE
  5
BB2
330
318
100
AcDbEntity
  8
寸法線_1
  6
Continuous
 62
     7
100
AcDbLine
 10
582.4142433955824
 20
594.5873596199439
 30
0.0000000000000001
 11
582.4142433955824
 21
591.5873596199439
 31
0.0000000000000001
  0
SOLID
  5
BB3
330
318
100
AcDbEntity
  8
寸法線_1
  6
Continuous
 62
     7
100
AcDbTrace
 10
581.2892433955823
 20
590.0873596199439
 30
0.0000000000000001
 11
583.5392433955823
 21
590.0873596199439
 31
0.0000000000000001
 12
582.4142433955824
 22
594.5873596199439
 32
0.0000000000000001
 13
582.4142433955824
 23
594.5873596199439
 33
0.0000000000000001
  0
SOLID
  5
BB4
330
318
100
AcDbEntity
  8
寸法線_1
  6
Continuous
 62
     7
100
AcDbTrace
 10
583.9142433955823
 20
588.587359619944
 30
0.0000000000000001
 11
583.9142433955823
 21
588.587359619944
 31
0.0000000000000001
 12
582.4142433955824
 22
590.0873596199439
 32
0.0000000000000001
 13
583.5392433955823
 23
590.0873596199439
 33
0.0000000000000001
  0
SOLID
  5
BB5
330
318
100
AcDbEntity
  8
寸法線_1
  6
Continuous
 62
     7
100
AcDbTrace
 10
580.9142433955823
 20
588.587359619944
 30
0.0000000000000001
 11
580.9142433955823
 21
588.587359619944
 31
0.0000000000000001
 12
581.2892433955823
 22
590.0873596199439
 32
0.0000000000000001
 13
582.4142433955824
 23
590.0873596199439
 33
0.0000000000000001
  0
LINE
  5
BB6
330
318
100
AcDbEntity
  8
寸法線_1
  6
Continuous
 62
     7
100
AcDbLine
 10
582.4142433955824
 20
614.5873596199439
 30
0.0000000000000001
 11
582.4142433955824
 21
617.587359619944
 31
0.0000000000000001
  0
SOLID
  5
BB7
330
318
100
AcDbEntity
  8
寸法線_1
  6
Continuous
 62
     7
100
AcDbTrace
 10
582.4142433955824
 20
619.0873596199439
 30
0.0000000000000001
 11
583.5392433955823
 21
619.0873596199439
 31
0.0000000000000001
 12
583.9142433955823
 22
620.5873596199439
 32
0.0000000000000001
 13
583.9142433955823
 23
620.5873596199439
 33
0.0000000000000001
  0
SOLID
  5
BB8
330
318
100
AcDbEntity
  8
寸法線_1
  6
Continuous
 62
     7
100
AcDbTrace
 10
581.2892433955823
 20
619.0873596199439
 30
0.0000000000000001
 11
582.4142433955824
 21
619.0873596199439
 31
0.0000000000000001
 12
580.9142433955823
 22
620.5873596199439
 32
0.0000000000000001
 13
580.9142433955823
 23
620.5873596199439
 33
0.0000000000000001
  0
SOLID
  5
BB9
330
318
100
AcDbEntity
  8
寸法線_1
  6
Continuous
 62
     7
100
AcDbTrace
 10
582.4142433955824
 20
614.5873596199439
 30
0.0000000000000001
 11
582.4142433955824
 21
614.5873596199439
 31
0.0000000000000001
 12
581.2892433955823
 22
619.0873596199439
 32
0.0000000000000001
 13
583.5392433955823
 23
619.0873596199439
 33
0.0000000000000001
  0
LINE
  5
BBA
330
318
100
AcDbEntity
  8
寸法線_1
  6
Continuous
 62
     7
100
AcDbLine
 10
560.9338640590571
 20
614.5873596199439
 30
0.0000000000000001
 11
582.9142433955824
 21
614.5873596199439
 31
0.0000000000000001
  0
LINE
  5
BBB
330
318
100
AcDbEntity
  8
寸法線_1
  6
Continuous
 62
     7
100
AcDbLine
 10
538.9338640590572
 20
594.5873596199439
 30
0.0000000000000001
 11
582.9142433955824
 21
594.5873596199439
 31
0.0000000000000001
  0
LINE
  5
BBC
330
318
100
AcDbEntity
  8
寸法線_1
  6
Continuous
 62
     7
100
AcDbLine
 10
582.4142433955824
 20
614.5873596199439
 30
0.0000000000000001
 11
582.4142433955824
 21
594.5873596199439
 31
0.0000000000000001
  0
TEXT
  5
BBD
330
318
100
AcDbEntity
  8
寸法線_1
  6
Continuous
 62
     7
100
AcDbText
 10
537.9060863872432
 20
702.1617201892622
 30
0.0000000000000001
 40
7.055555343627929
  1
22
  7
STYLE1
100
AcDbText
  0
LINE
  5
BBE
330
318
100
AcDbEntity
  8
寸法線_1
  6
Continuous
 62
     7
100
AcDbLine
 10
552.4338640590571
 20
700.1327850349833
 30
0.0000000000000001
 11
555.4338640590572
 21
700.1327850349833
 31
0.0000000000000001
  0
SOLID
  5
BBF
330
318
100
AcDbEntity
  8
寸法線_1
  6
Continuous
 62
     7
100
AcDbTrace
 10
552.4338640590571
 20
700.1327850349833
 30
0.0000000000000001
 11
556.9338640590571
 21
700.1327850349833
 31
0.0000000000000001
 12
558.4338640590572
 22
701.6327850349832
 32
0.0000000000000001
 13
558.4338640590572
 23
701.6327850349832
 33
0.0000000000000001
  0
SOLID
  5
BC0
330
318
100
AcDbEntity
  8
寸法線_1
  6
Continuous
 62
     7
100
AcDbTrace
 10
558.4338640590572
 20
698.6327850349832
 30
0.0000000000000001
 11
558.4338640590572
 21
698.6327850349832
 31
0.0000000000000001
 12
552.4338640590571
 22
700.1327850349833
 32
0.0000000000000001
 13
556.9338640590571
 23
700.1327850349833
 33
0.0000000000000001
  0
LINE
  5
BC1
330
318
100
AcDbEntity
  8
寸法線_1
  6
Continuous
 62
     7
100
AcDbLine
 10
530.4338640590572
 20
700.1327850349833
 30
0.0000000000000001
 11
527.4338640590571
 21
700.1327850349833
 31
0.0000000000000001
  0
SOLID
  5
BC2
330
318
100
AcDbEntity
  8
寸法線_1
  6
Continuous
 62
     7
100
AcDbTrace
 10
525.9338640590572
 20
700.1327850349833
 30
0.0000000000000001
 11
530.4338640590572
 21
700.1327850349833
 31
0.0000000000000001
 12
524.4338640590572
 22
701.6327850349832
 32
0.0000000000000001
 13
524.4338640590572
 23
701.6327850349832
 33
0.0000000000000001
  0
SOLID
  5
BC3
330
318
100
AcDbEntity
  8
寸法線_1
  6
Continuous
 62
     7
100
AcDbTrace
 10
524.4338640590572
 20
698.6327850349832
 30
0.0000000000000001
 11
524.4338640590572
 21
698.6327850349832
 31
0.0000000000000001
 12
525.9338640590572
 22
700.1327850349833
 32
0.0000000000000001
 13
530.4338640590572
 23
700.1327850349833
 33
0.0000000000000001
  0
LINE
  5
BC4
330
318
100
AcDbEntity
  8
寸法線_1
  6
Continuous
 62
     7
100
AcDbLine
 10
530.4338640590572
 20
643.0873596199441
 30
0.0000000000000001
 11
530.4338640590572
 21
700.6327850349832
 31
0.0000000000000001
  0
LINE
  5
BC5
330
318
100
AcDbEntity
  8
寸法線_1
  6
Continuous
 62
     7
100
AcDbLine
 10
552.4338640590571
 20
623.0873596199439
 30
0.0000000000000001
 11
552.4338640590571
 21
700.6327850349832
 31
0.0000000000000001
  0
LINE
  5
BC6
330
318
100
AcDbEntity
  8
寸法線_1
  6
Continuous
 62
     7
100
AcDbLine
 10
530.4338640590572
 20
700.1327850349833
 30
0.0000000000000001
 11
552.4338640590571
 21
700.1327850349833
 31
0.0000000000000001
  0
TEXT
  5
BC7
330
318
100
AcDbEntity
  8
寸法線_1
  6
Continuous
 62
     7
100
AcDbText
 10
524.6699752231502
 20
702.1617201892622
 30
0.0000000000000001
 40
7.055555343627929
  1
8
  7
STYLE1
100
AcDbText
  0
LINE
  5
BC8
330
318
100
AcDbEntity
  8
寸法線_1
  6
Continuous
 62
     7
100
AcDbLine
 10
530.4338640590572
 20
700.1327850349833
 30
0.0000000000000001
 11
533.4338640590572
 21
700.1327850349833
 31
0.0000000000000001
  0
SOLID
  5
BC9
330
318
100
AcDbEntity
  8
寸法線_1
  6
Continuous
 62
     7
100
AcDbTrace
 10
530.4338640590572
 20
700.1327850349833
 30
0.0000000000000001
 11
534.9338640590572
 21
700.1327850349833
 31
0.0000000000000001
 12
536.4338640590572
 22
701.6327850349832
 32
0.0000000000000001
 13
536.4338640590572
 23
701.6327850349832
 33
0.0000000000000001
  0
SOLID
  5
BCA
330
318
100
AcDbEntity
  8
寸法線_1
  6
Continuous
 62
     7
100
AcDbTrace
 10
536.4338640590572
 20
698.6327850349832
 30
0.0000000000000001
 11
536.4338640590572
 21
698.6327850349832
 31
0.0000000000000001
 12
530.4338640590572
 22
700.1327850349833
 32
0.0000000000000001
 13
534.9338640590572
 23
700.1327850349833
 33
0.0000000000000001
  0
LINE
  5
BCB
330
318
100
AcDbEntity
  8
寸法線_1
  6
Continuous
 62
     7
100
AcDbLine
 10
522.4338640590572
 20
700.1327850349833
 30
0.0000000000000001
 11
519.4338640590571
 21
700.1327850349833
 31
0.0000000000000001
  0
SOLID
  5
BCC
330
318
100
AcDbEntity
  8
寸法線_1
  6
Continuous
 62
     7
100
AcDbTrace
 10
517.9338640590572
 20
700.1327850349833
 30
0.0000000000000001
 11
522.4338640590572
 21
700.1327850349833
 31
0.0000000000000001
 12
516.4338640590572
 22
701.6327850349832
 32
0.0000000000000001
 13
516.4338640590572
 23
701.6327850349832
 33
0.0000000000000001
  0
SOLID
  5
BCD
330
318
100
AcDbEntity
  8
寸法線_1
  6
Continuous
 62
     7
100
AcDbTrace
 10
516.4338640590572
 20
698.6327850349832
 30
0.0000000000000001
 11
516.4338640590572
 21
698.6327850349832
 31
0.0000000000000001
 12
517.9338640590572
 22
700.1327850349833
 32
0.0000000000000001
 13
522.4338640590572
 23
700.1327850349833
 33
0.0000000000000001
  0
LINE
  5
BCE
330
318
100
AcDbEntity
  8
寸法線_1
  6
Continuous
 62
     7
100
AcDbLine
 10
522.4338640590572
 20
665.5873596199442
 30
0.0000000000000001
 11
522.4338640590572
 21
700.6327850349832
 31
0.0000000000000001
  0
LINE
  5
BCF
330
318
100
AcDbEntity
  8
寸法線_1
  6
Continuous
 62
     7
100
AcDbLine
 10
530.4338640590572
 20
643.0873596199441
 30
0.0000000000000001
 11
530.4338640590572
 21
700.6327850349832
 31
0.0000000000000001
  0
LINE
  5
BD0
330
318
100
AcDbEntity
  8
寸法線_1
  6
Continuous
 62
     7
100
AcDbLine
 10
522.4338640590572
 20
700.1327850349833
 30
0.0000000000000001
 11
530.4338640590572
 21
700.1327850349833
 31
0.0000000000000001
  0
TEXT
  5
BD1
330
318
100
AcDbEntity
  8
寸法線_1
  6
Continuous
 62
     7
100
AcDbText
 10
455.358517257893
 20
499.1404550759317
 30
0.0000000000000001
 40
7.055555343627929
  1
5－\U+03C66穴　皿\U+03C611
 50
325.0000000000034
  7
STYLE1
100
AcDbText
  0
LINE
  5
BD2
330
318
100
AcDbEntity
  8
寸法線_1
  6
Continuous
 62
     7
100
AcDbLine
 10
537.6268369532415
 20
438.5568110449624
 30
0.0000000000000001
 11
453.9589642407703
 21
497.1416862241977
 31
0.0000000000000001
  0
SOLID
  5
BD3
330
318
100
AcDbEntity
  8
寸法線_1
  6
Continuous
 62
     7
100
AcDbTrace
 10
533.9406527539406
 20
441.1379050085419
 30
0.0000000000000001
 11
535.3859911217507
 21
441.1379050085419
 31
0.0000000000000001
 12
533.5722893420336
 22
443.226997729502
 32
0.0000000000000001
 13
533.5722893420336
 23
443.226997729502
 33
0.0000000000000001
  0
SOLID
  5
BD4
330
318
100
AcDbEntity
  8
寸法線_1
  6
Continuous
 62
     7
100
AcDbTrace
 10
531.8515600329805
 20
440.7695415966348
 30
0.0000000000000001
 11
535.7057956804737
 21
440.7695415966348
 31
0.0000000000000001
 12
533.9406527539406
 22
441.1379050085419
 32
0.0000000000000001
 13
535.3859911217507
 23
441.1379050085419
 33
0.0000000000000001
  0
SOLID
  5
BD5
330
318
100
AcDbEntity
  8
寸法線_1
  6
Continuous
 62
     7
100
AcDbTrace
 10
537.6268369532415
 20
438.5568110449624
 30
0.0000000000000001
 11
537.6268369532415
 21
438.5568110449624
 31
0.0000000000000001
 12
531.8515600329805
 22
440.7695415966348
 32
0.0000000000000001
 13
535.7057956804737
 23
440.7695415966348
 33
0.0000000000000001
  0
TEXT
  5
BD6
330
318
100
AcDbEntity
  8
寸法線_1
  6
Continuous
 62
     7
100
AcDbText
 10
554.6699752231502
 20
702.1617201892622
 30
0.0000000000000001
 40
7.055555343627929
  1
8
  7
STYLE1
100
AcDbText
  0
LINE
  5
BD7
330
318
100
AcDbEntity
  8
寸法線_1
  6
Continuous
 62
     7
100
AcDbLine
 10
560.4338640590571
 20
700.1327850349833
 30
0.0000000000000001
 11
563.4338640590572
 21
700.1327850349833
 31
0.0000000000000001
  0
SOLID
  5
BD8
330
318
100
AcDbEntity
  8
寸法線_1
  6
Continuous
 62
     7
100
AcDbTrace
 10
560.4338640590571
 20
700.1327850349833
 30
0.0000000000000001
 11
564.9338640590571
 21
700.1327850349833
 31
0.0000000000000001
 12
566.4338640590572
 22
701.6327850349832
 32
0.0000000000000001
 13
566.4338640590572
 23
701.6327850349832
 33
0.0000000000000001
  0
SOLID
  5
BD9
330
318
100
AcDbEntity
  8
寸法線_1
  6
Continuous
 62
     7
100
AcDbTrace
 10
566.4338640590572
 20
698.6327850349832
 30
0.0000000000000001
 11
566.4338640590572
 21
698.6327850349832
 31
0.0000000000000001
 12
560.4338640590571
 22
700.1327850349833
 32
0.0000000000000001
 13
564.9338640590571
 23
700.1327850349833
 33
0.0000000000000001
  0
LINE
  5
BDA
330
318
100
AcDbEntity
  8
寸法線_1
  6
Continuous
 62
     7
100
AcDbLine
 10
552.4338640590571
 20
700.1327850349833
 30
0.0000000000000001
 11
549.4338640590572
 21
700.1327850349833
 31
0.0000000000000001
  0
SOLID
  5
BDB
330
318
100
AcDbEntity
  8
寸法線_1
  6
Continuous
 62
     7
100
AcDbTrace
 10
547.9338640590571
 20
700.1327850349833
 30
0.0000000000000001
 11
552.4338640590571
 21
700.1327850349833
 31
0.0000000000000001
 12
546.4338640590572
 22
701.6327850349832
 32
0.0000000000000001
 13
546.4338640590572
 23
701.6327850349832
 33
0.0000000000000001
  0
SOLID
  5
BDC
330
318
100
AcDbEntity
  8
寸法線_1
  6
Continuous
 62
     7
100
AcDbTrace
 10
546.4338640590572
 20
698.6327850349832
 30
0.0000000000000001
 11
546.4338640590572
 21
698.6327850349832
 31
0.0000000000000001
 12
547.9338640590571
 22
700.1327850349833
 32
0.0000000000000001
 13
552.4338640590571
 23
700.1327850349833
 33
0.0000000000000001
  0
LINE
  5
BDD
330
318
100
AcDbEntity
  8
寸法線_1
  6
Continuous
 62
     7
100
AcDbLine
 10
552.4338640590571
 20
623.0873596199439
 30
0.0000000000000001
 11
552.4338640590571
 21
700.6327850349832
 31
0.0000000000000001
  0
LINE
  5
BDE
330
318
100
AcDbEntity
  8
寸法線_1
  6
Continuous
 62
     7
100
AcDbLine
 10
560.4338640590571
 20
665.5873596199442
 30
0.0000000000000001
 11
560.4338640590571
 21
700.6327850349832
 31
0.0000000000000001
  0
LINE
  5
BDF
330
318
100
AcDbEntity
  8
寸法線_1
  6
Continuous
 62
     7
100
AcDbLine
 10
552.4338640590571
 20
700.1327850349833
 30
0.0000000000000001
 11
560.4338640590571
 21
700.1327850349833
 31
0.0000000000000001
  0
TEXT
  5
BE0
330
318
100
AcDbEntity
  8
寸法線_1
  6
Continuous
 62
     7
100
AcDbText
 10
508.9856886673097
 20
390.3944109810641
 30
0.0000000000000001
 40
7.055555343627929
  1
R50
 50
54.99999999999982
  7
STYLE1
100
AcDbText
  0
LINE
  5
BE1
330
318
100
AcDbEntity
  8
寸法線_1
  6
Continuous
 62
     7
100
AcDbLine
 10
529.856049407788
 20
415.9462843039023
 30
0.0000000000000001
 11
510.9844575190435
 21
388.9948579639413
 31
0.0000000000000001
  0
SOLID
  5
BE2
330
318
100
AcDbEntity
  8
寸法線_1
  6
Continuous
 62
     7
100
AcDbTrace
 10
525.6101581234563
 20
412.2601001046017
 30
0.0000000000000001
 11
528.4437305684489
 21
412.2601001046017
 31
0.0000000000000001
 12
529.856049407788
 22
415.9462843039023
 32
0.0000000000000001
 13
529.856049407788
 23
415.9462843039023
 33
0.0000000000000001
  0
SOLID
  5
BE3
330
318
100
AcDbEntity
  8
寸法線_1
  6
Continuous
 62
     7
100
AcDbTrace
 10
527.3399078524334
 20
411.8917366926948
 30
0.0000000000000001
 11
528.3025963878895
 21
411.8917366926948
 31
0.0000000000000001
 12
527.2749554442082
 22
412.2601001046017
 32
0.0000000000000001
 13
528.4437305684489
 23
412.2601001046017
 33
0.0000000000000001
  0
SOLID
  5
BE4
330
318
100
AcDbEntity
  8
寸法線_1
  6
Continuous
 62
     7
100
AcDbTrace
 10
525.1858627232484
 20
411.8917366926948
 30
0.0000000000000001
 11
525.1858627232484
 21
411.8917366926948
 31
0.0000000000000001
 12
525.6101581234563
 22
412.2601001046017
 32
0.0000000000000001
 13
527.2749554442082
 23
412.2601001046017
 33
0.0000000000000001
  0
SOLID
  5
BE5
330
318
100
AcDbEntity
  8
寸法線_1
  6
Continuous
 62
     7
100
AcDbTrace
 10
527.6433188561155
 20
410.1710073836417
 30
0.0000000000000001
 11
527.6433188561155
 21
410.1710073836417
 31
0.0000000000000001
 12
527.3399078524334
 22
411.8917366926948
 32
0.0000000000000001
 13
528.3025963878895
 23
411.8917366926948
 33
0.0000000000000001
  0
TEXT
  5
BE6
330
318
100
AcDbEntity
  8
寸法線_1
  6
Continuous
 62
     7
100
AcDbText
 10
580.3853082413033
 20
581.0595819481299
 30
0.0000000000000001
 40
7.055555343627929
  1
20
 50
90.0
  7
STYLE1
100
AcDbText
  0
LINE
  5
BE7
330
318
100
AcDbEntity
  8
寸法線_1
  6
Continuous
 62
     7
100
AcDbLine
 10
582.4142433955824
 20
574.5873596199439
 30
0.0000000000000001
 11
582.4142433955824
 21
571.587359619944
 31
0.0000000000000001
  0
SOLID
  5
BE8
330
318
100
AcDbEntity
  8
寸法線_1
  6
Continuous
 62
     7
100
AcDbTrace
 10
581.2892433955823
 20
570.0873596199439
 30
0.0000000000000001
 11
583.5392433955823
 21
570.0873596199439
 31
0.0000000000000001
 12
582.4142433955824
 22
574.5873596199439
 32
0.0000000000000001
 13
582.4142433955824
 23
574.5873596199439
 33
0.0000000000000001
  0
SOLID
  5
BE9
330
318
100
AcDbEntity
  8
寸法線_1
  6
Continuous
 62
     7
100
AcDbTrace
 10
583.9142433955823
 20
568.5873596199439
 30
0.0000000000000001
 11
583.9142433955823
 21
568.5873596199439
 31
0.0000000000000001
 12
582.4142433955824
 22
570.0873596199439
 32
0.0000000000000001
 13
583.5392433955823
 23
570.0873596199439
 33
0.0000000000000001
  0
SOLID
  5
BEA
330
318
100
AcDbEntity
  8
寸法線_1
  6
Continuous
 62
     7
100
AcDbTrace
 10
580.9142433955823
 20
568.5873596199439
 30
0.0000000000000001
 11
580.9142433955823
 21
568.5873596199439
 31
0.0000000000000001
 12
581.2892433955823
 22
570.0873596199439
 32
0.0000000000000001
 13
582.4142433955824
 23
570.0873596199439
 33
0.0000000000000001
  0
LINE
  5
BEB
330
318
100
AcDbEntity
  8
寸法線_1
  6
Continuous
 62
     7
100
AcDbLine
 10
582.4142433955824
 20
594.5873596199439
 30
0.0000000000000001
 11
582.4142433955824
 21
597.587359619944
 31
0.0000000000000001
  0
SOLID
  5
BEC
330
318
100
AcDbEntity
  8
寸法線_1
  6
Continuous
 62
     7
100
AcDbTrace
 10
582.4142433955824
 20
599.0873596199439
 30
0.0000000000000001
 11
583.5392433955823
 21
599.0873596199439
 31
0.0000000000000001
 12
583.9142433955823
 22
600.587359619944
 32
0.0000000000000001
 13
583.9142433955823
 23
600.587359619944
 33
0.0000000000000001
  0
SOLID
  5
BED
330
318
100
AcDbEntity
  8
寸法線_1
  6
Continuous
 62
     7
100
AcDbTrace
 10
581.2892433955823
 20
599.0873596199439
 30
0.0000000000000001
 11
582.4142433955824
 21
599.0873596199439
 31
0.0000000000000001
 12
580.9142433955823
 22
600.587359619944
 32
0.0000000000000001
 13
580.9142433955823
 23
600.587359619944
 33
0.0000000000000001
  0
SOLID
  5
BEE
330
318
100
AcDbEntity
  8
寸法線_1
  6
Continuous
 62
     7
100
AcDbTrace
 10
582.4142433955824
 20
594.5873596199439
 30
0.0000000000000001
 11
582.4142433955824
 21
594.5873596199439
 31
0.0000000000000001
 12
581.2892433955823
 22
599.0873596199439
 32
0.0000000000000001
 13
583.5392433955823
 23
599.0873596199439
 33
0.0000000000000001
  0
LINE
  5
BEF
330
318
100
AcDbEntity
  8
寸法線_1
  6
Continuous
 62
     7
100
AcDbLine
 10
538.9338640590572
 20
594.5873596199439
 30
0.0000000000000001
 11
582.9142433955824
 21
594.5873596199439
 31
0.0000000000000001
  0
LINE
  5
BF0
330
318
100
AcDbEntity
  8
寸法線_1
  6
Continuous
 62
     7
100
AcDbLine
 10
560.9338640590571
 20
574.5873596199439
 30
0.0000000000000001
 11
582.9142433955824
 21
574.5873596199439
 31
0.0000000000000001
  0
LINE
  5
BF1
330
318
100
AcDbEntity
  8
寸法線_1
  6
Continuous
 62
     7
100
AcDbLine
 10
582.4142433955824
 20
594.5873596199439
 30
0.0000000000000001
 11
582.4142433955824
 21
574.5873596199439
 31
0.0000000000000001
  0
TEXT
  5
BF2
330
318
100
AcDbEntity
  8
寸法線_1
  6
Continuous
 62
     7
100
AcDbText
 10
580.3853082413033
 20
499.295693112223
 30
0.0000000000000001
 40
7.055555343627929
  1
140
 50
90.0
  7
STYLE1
100
AcDbText
  0
LINE
  5
BF3
330
318
100
AcDbEntity
  8
寸法線_1
  6
Continuous
 62
     7
100
AcDbLine
 10
582.4142433955824
 20
434.587359619944
 30
0.0000000000000001
 11
582.4142433955824
 21
504.587359619944
 31
0.0000000000000001
  0
SOLID
  5
BF4
330
318
100
AcDbEntity
  8
寸法線_1
  6
Continuous
 62
     7
100
AcDbTrace
 10
582.4142433955824
 20
439.087359619944
 30
0.0000000000000001
 11
583.5392433955823
 21
439.087359619944
 31
0.0000000000000001
 12
583.9142433955823
 22
440.5873596199439
 32
0.0000000000000001
 13
583.9142433955823
 23
440.5873596199439
 33
0.0000000000000001
  0
SOLID
  5
BF5
330
318
100
AcDbEntity
  8
寸法線_1
  6
Continuous
 62
     7
100
AcDbTrace
 10
581.2892433955823
 20
439.087359619944
 30
0.0000000000000001
 11
582.4142433955824
 21
439.087359619944
 31
0.0000000000000001
 12
580.9142433955823
 22
440.5873596199439
 32
0.0000000000000001
 13
580.9142433955823
 23
440.5873596199439
 33
0.0000000000000001
  0
SOLID
  5
BF6
330
318
100
AcDbEntity
  8
寸法線_1
  6
Continuous
 62
     7
100
AcDbTrace
 10
582.4142433955824
 20
434.587359619944
 30
0.0000000000000001
 11
582.4142433955824
 21
434.587359619944
 31
0.0000000000000001
 12
581.2892433955823
 22
439.087359619944
 32
0.0000000000000001
 13
583.5392433955823
 23
439.087359619944
 33
0.0000000000000001
  0
LINE
  5
BF7
330
318
100
AcDbEntity
  8
寸法線_1
  6
Continuous
 62
     7
100
AcDbLine
 10
582.4142433955824
 20
574.5873596199439
 30
0.0000000000000001
 11
582.4142433955824
 21
504.587359619944
 31
0.0000000000000001
  0
SOLID
  5
BF8
330
318
100
AcDbEntity
  8
寸法線_1
  6
Continuous
 62
     7
100
AcDbTrace
 10
581.2892433955823
 20
570.0873596199439
 30
0.0000000000000001
 11
583.5392433955823
 21
570.0873596199439
 31
0.0000000000000001
 12
582.4142433955824
 22
574.5873596199439
 32
0.0000000000000001
 13
582.4142433955824
 23
574.5873596199439
 33
0.0000000000000001
  0
SOLID
  5
BF9
330
318
100
AcDbEntity
  8
寸法線_1
  6
Continuous
 62
     7
100
AcDbTrace
 10
583.9142433955823
 20
568.5873596199439
 30
0.0000000000000001
 11
583.9142433955823
 21
568.5873596199439
 31
0.0000000000000001
 12
582.4142433955824
 22
570.0873596199439
 32
0.0000000000000001
 13
583.5392433955823
 23
570.0873596199439
 33
0.0000000000000001
  0
SOLID
  5
BFA
330
318
100
AcDbEntity
  8
寸法線_1
  6
Continuous
 62
     7
100
AcDbTrace
 10
580.9142433955823
 20
568.5873596199439
 30
0.0000000000000001
 11
580.9142433955823
 21
568.5873596199439
 31
0.0000000000000001
 12
581.2892433955823
 22
570.0873596199439
 32
0.0000000000000001
 13
582.4142433955824
 23
570.0873596199439
 33
0.0000000000000001
  0
LINE
  5
BFB
330
318
100
AcDbEntity
  8
寸法線_1
  6
Continuous
 62
     7
100
AcDbLine
 10
560.9338640590571
 20
574.5873596199439
 30
0.0000000000000001
 11
582.9142433955824
 21
574.5873596199439
 31
0.0000000000000001
  0
LINE
  5
BFC
330
318
100
AcDbEntity
  8
寸法線_1
  6
Continuous
 62
     7
100
AcDbLine
 10
549.9338640590572
 20
434.587359619944
 30
0.0000000000000001
 11
582.9142433955824
 21
434.587359619944
 31
0.0000000000000001
  0
LINE
  5
BFD
330
318
100
AcDbEntity
  8
0
  6
CENTER
 62
     3
100
AcDbLine
 10
552.4338640590571
 20
582.0873596199439
 30
0.0
 11
552.4338640590571
 21
567.087359619944
 31
0.0
  0
LINE
  5
BFE
330
318
100
AcDbEntity
  8
0
  6
CENTER
 62
     3
100
AcDbLine
 10
544.9338640590572
 20
574.5873596199439
 30
0.0
 11
559.9338640590572
 21
574.5873596199439
 31
0.0
  0
LINE
  5
BFF
330
318
100
AcDbEntity
  8
0
  6
CENTER
 62
     3
100
AcDbLine
 10
552.4338640590571
 20
622.087359619944
 30
0.0
 11
552.4338640590571
 21
607.0873596199439
 31
0.0
  0
LINE
  5
C00
330
318
100
AcDbEntity
  8
0
  6
CENTER
 62
     3
100
AcDbLine
 10
544.9338640590572
 20
614.5873596199439
 30
0.0
 11
559.9338640590572
 21
614.5873596199439
 31
0.0
  0
CIRCLE
  5
C01
330
318
100
AcDbEntity
  8
0
  6
Continuous
 62
     5
100
AcDbCircle
 10
530.4338640590572
 20
634.5873596199441
 30
0.0
 40
3.000000000000024
  0
CIRCLE
  5
C02
330
318
100
AcDbEntity
  8
0
  6
Continuous
 62
     5
100
AcDbCircle
 10
530.4338640590572
 20
634.5873596199441
 30
0.0
 40
5.499999999999882
  0
CIRCLE
  5
C03
330
318
100
AcDbEntity
  8
0
  6
Continuous
 62
     5
100
AcDbCircle
 10
530.4338640590572
 20
594.5873596199439
 30
0.0
 40
3.000000000000064
  0
CIRCLE
  5
C04
330
318
100
AcDbEntity
  8
0
  6
Continuous
 62
     5
100
AcDbCircle
 10
530.4338640590572
 20
594.5873596199439
 30
0.0
 40
5.499999999999915
  0
LINE
  5
C05
330
318
100
AcDbEntity
  8
0
  6
Continuous
 62
     5
100
AcDbLine
 10
539.1838640590572
 20
660.0873596199441
 30
0.0
 11
539.1838640590572
 21
465.087359619944
 31
0.0
  0
LINE
  5
C06
330
318
100
AcDbEntity
  8
0
  6
Continuous
 62
     5
100
AcDbLine
 10
543.6838640590572
 20
660.0873596199441
 30
0.0
 11
543.6838640590572
 21
465.087359619944
 31
0.0
  0
LINE
  5
C07
330
318
100
AcDbEntity
  8
0
  6
Continuous
 62
     5
100
AcDbLine
 10
560.4338640590571
 20
664.5873596199442
 30
0.0
 11
522.4338640590572
 21
664.5873596199442
 31
0.0
  0
LINE
  5
C08
330
318
100
AcDbEntity
  8
0
  6
Continuous
 62
     5
100
AcDbLine
 10
560.4338640590571
 20
660.0873596199441
 30
0.0
 11
522.4338640590572
 21
660.0873596199441
 31
0.0
  0
LINE
  5
C09
330
318
100
AcDbEntity
  8
0
  6
Continuous
 62
     5
100
AcDbLine
 10
543.6838640590572
 20
465.087359619944
 30
0.0
 11
539.1838640590572
 21
465.087359619944
 31
0.0
  0
LINE
  5
C0A
330
318
100
AcDbEntity
  8
0
  6
CENTER
 62
     3
100
AcDbLine
 10
530.4338640590572
 20
587.0873596199439
 30
0.0
 11
530.4338640590572
 21
602.0873596199439
 31
0.0
  0
LINE
  5
C0B
330
318
100
AcDbEntity
  8
0
  6
CENTER
 62
     3
100
AcDbLine
 10
522.9338640590571
 20
594.5873596199439
 30
0.0
 11
537.9338640590572
 21
594.5873596199439
 31
0.0
  0
LINE
  5
C0C
330
318
100
AcDbEntity
  8
0
  6
Continuous
 62
     5
100
AcDbLine
 10
560.4338640590571
 20
664.5873596199442
 30
0.0
 11
560.4338640590571
 21
418.3380353005553
 31
0.0
  0
ARC
  5
C0D
330
318
100
AcDbEntity
  8
0
  6
Continuous
 62
     5
100
AcDbCircle
 10
541.4338640590572
 20
464.587359619944
 30
0.0
 40
50.0000000000001
100
AcDbArc
 50
247.6663173421945
 51
292.3336826578053
  0
LINE
  5
C0E
330
318
100
AcDbEntity
  8
0
  6
CENTER
 62
     3
100
AcDbLine
 10
541.4338640590572
 20
670.0873596199442
 30
0.0
 11
541.4338640590572
 21
409.0873596199441
 31
0.0
  0
LINE
  5
C0F
330
318
100
AcDbEntity
  8
0
  6
Continuous
 62
     5
100
AcDbLine
 10
522.4338640590572
 20
664.5873596199442
 30
0.0
 11
522.4338640590572
 21
418.3380353005553
 31
0.0
  0
LINE
  5
C10
330
318
100
AcDbEntity
  8
0
  6
CENTER
 62
     3
100
AcDbLine
 10
530.4338640590572
 20
642.0873596199442
 30
0.0
 11
530.4338640590572
 21
627.0873596199439
 31
0.0
  0
LINE
  5
C11
330
318
100
AcDbEntity
  8
0
  6
CENTER
 62
     3
100
AcDbLine
 10
522.9338640590571
 20
634.5873596199441
 30
0.0
 11
537.9338640590572
 21
634.5873596199441
 31
0.0
  0
LINE
  5
C12
330
318
100
AcDbEntity
  8
0
  6
CENTER
 62
     3
100
AcDbLine
 10
533.9338640590572
 20
434.587359619944
 30
0.0
 11
548.9338640590572
 21
434.587359619944
 31
0.0
  0
LINE
  5
C13
330
318
100
AcDbEntity
  8
0
  6
CENTER
 62
     3
100
AcDbLine
 10
541.4338640590572
 20
442.087359619944
 30
0.0
 11
541.4338640590572
 21
427.0873596199439
 31
0.0
  0
CIRCLE
  5
C14
330
318
100
AcDbEntity
  8
0
  6
Continuous
 62
     5
100
AcDbCircle
 10
541.4338640590572
 20
434.587359619944
 30
0.0
 40
3.000000000000064
  0
CIRCLE
  5
C15
330
318
100
AcDbEntity
  8
0
  6
Continuous
 62
     5
100
AcDbCircle
 10
541.4338640590572
 20
434.587359619944
 30
0.0
 40
5.499999999999915
  0
CIRCLE
  5
C16
330
318
100
AcDbEntity
  8
0
  6
Continuous
 62
     5
100
AcDbCircle
 10
552.4338640590571
 20
614.5873596199439
 30
0.0
 40
3.000000000000064
  0
CIRCLE
  5
C17
330
318
100
AcDbEntity
  8
0
  6
Continuous
 62
     5
100
AcDbCircle
 10
552.4338640590571
 20
614.5873596199439
 30
0.0
 40
5.499999999999915
  0
CIRCLE
  5
C18
330
318
100
AcDbEntity
  8
0
  6
Continuous
 62
     5
100
AcDbCircle
 10
552.4338640590571
 20
574.5873596199439
 30
0.0
 40
3.000000000000064
  0
CIRCLE
  5
C19
330
318
100
AcDbEntity
  8
0
  6
Continuous
 62
     5
100
AcDbCircle
 10
552.4338640590571
 20
574.5873596199439
 30
0.0
 40
5.499999999999915
  0
TEXT
  5
C8A
330
318
100
AcDbEntity
  8
____1
  6
Continuous
 62
     0
100
AcDbText
 10
1130.129180697114
 20
707.8061706289889
 30
0.0
 40
4.93888874053955
  1
ブラック色を追加
  7
STYLE1
100
AcDbText
  0
LINE
  5
C8B
330
318
100
AcDbEntity
  8
____1
  6
Continuous
 62
     0
100
AcDbLine
 10
1065.463944734309
 20
705.285733687789
 30
0.0
 11
1245.463944734308
 21
705.285733687789
 31
0.0
  0
TEXT
  5
C8C
330
318
100
AcDbEntity
  8
____1
  6
Continuous
 62
     0
100
AcDbText
 10
1089.241665759198
 20
707.8061706289889
 30
0.0
 40
4.93888874053955
  1
2020.03.10
  7
STYLE1
100
AcDbText
  0
TEXT
  5
C8D
330
318
100
AcDbEntity
  8
____1
  6
Continuous
 62
     0
100
AcDbText
 10
1073.43205214299
 20
707.2472658179115
 30
0.0
 40
4.682630310058594
  1
4
  7
STYLE1
100
AcDbText
  0
LINE
  5
C8E
330
318
100
AcDbEntity
  8
____1
  6
Continuous
 62
     0
100
AcDbLine
 10
1074.895373962224
 20
714.7209686872615
 30
0.0
 11
1079.845373962224
 21
706.1473171897955
 31
0.0
  0
LINE
  5
C8F
330
318
100
AcDbEntity
  8
____1
  6
Continuous
 62
     0
100
AcDbLine
 10
1074.895373962224
 20
714.7209686872615
 30
0.0
 11
1069.945373962224
 21
706.1473171897955
 31
0.0
  0
LINE
  5
C90
330
318
100
AcDbEntity
  8
____1
  6
Continuous
 62
     0
100
AcDbLine
 10
1069.945373962224
 20
706.1473171897955
 30
0.0
 11
1079.845373962224
 21
706.1473171897955
 31
0.0
  0
TEXT
  5
CC8
330
318
100
AcDbEntity
  8
____1
  6
Continuous
 62
     7
100
AcDbText
 10
952.428708717535
 20
269.3007130477375
 30
0.0
 40
6.773332977294922
  1
表面処理：粉体塗装仕上げ
  7
STYLE1
100
AcDbText
  0
TEXT
  5
CC9
330
318
100
AcDbEntity
  8
____1
  6
Continuous
 62
     7
100
AcDbText
 10
1132.953594016306
 20
242.5595933574151
 30
0.0
 40
6.773332977294922
  1
ＬＹ-８３５／８３５Ｂ
  7
STYLE1
100
AcDbText
  0
LINE
  5
CCA
330
318
100
AcDbEntity
  8
____1
  6
Continuous
 62
     0
100
AcDbLine
 10
1168.432798538231
 20
260.1711162728931
 30
0.0
 11
1163.482798538231
 21
251.5974647754271
 31
0.0
  0
LINE
  5
CCB
330
318
100
AcDbEntity
  8
____1
  6
Continuous
 62
     0
100
AcDbLine
 10
1168.432798538231
 20
260.1711162728931
 30
0.0
 11
1173.382798538231
 21
251.5974647754271
 31
0.0
  0
LINE
  5
CCC
330
318
100
AcDbEntity
  8
____1
  6
Continuous
 62
     0
100
AcDbLine
 10
1163.482798538231
 20
251.5974647754271
 30
0.0
 11
1173.382798538231
 21
251.5974647754271
 31
0.0
  0
TEXT
  5
CCD
330
318
100
AcDbEntity
  8
____1
  6
Continuous
 62
     0
100
AcDbText
 10
1166.969476718997
 20
252.6974134035429
 30
0.0
 40
4.682630310058594
  1
3
  7
STYLE1
100
AcDbText
  0
LINE
  5
CCE
330
318
100
AcDbEntity
  8
____1
  6
Continuous
 62
     0
100
AcDbLine
 10
1203.575213640302
 20
260.1711162728931
 30
0.0
 11
1198.625213640302
 21
251.5974647754271
 31
0.0
  0
LINE
  5
CCF
330
318
100
AcDbEntity
  8
____1
  6
Continuous
 62
     0
100
AcDbLine
 10
1203.575213640302
 20
260.1711162728931
 30
0.0
 11
1208.525213640302
 21
251.5974647754271
 31
0.0
  0
LINE
  5
CD0
330
318
100
AcDbEntity
  8
____1
  6
Continuous
 62
     0
100
AcDbLine
 10
1198.625213640302
 20
251.5974647754271
 30
0.0
 11
1208.525213640302
 21
251.5974647754271
 31
0.0
  0
TEXT
  5
CD1
330
318
100
AcDbEntity
  8
____1
  6
Continuous
 62
     0
100
AcDbText
 10
1202.111891821069
 20
252.6974134035429
 30
0.0
 40
4.682630310058594
  1
4
  7
STYLE1
100
AcDbText
  0
TEXT
  5
CD2
330
318
100
AcDbEntity
  8
____1
  6
Continuous
 62
     7
100
AcDbText
 10
1146.859053858128
 20
201.2566871801147
 30
0.0
 40
6.773332977294922
  1
ＳＲＫ００００４
  7
STYLE1
100
AcDbText
  0
LINE
  5
CD3
330
318
100
AcDbEntity
  8
____1
  6
Continuous
 62
     7
100
AcDbLine
 10
901.6578285124625
 20
261.2857336877889
 30
0.0
 11
616.8374178253218
 21
261.2857336877889
 31
0.0
  0
LINE
  5
CD4
330
318
100
AcDbEntity
  8
____1
  6
Continuous
 62
     7
100
AcDbLine
 10
616.8374178253218
 20
261.2857336877889
 30
0.0
 11
616.8374178253218
 21
218.7232964396399
 31
0.0
  0
LINE
  5
CD5
330
318
100
AcDbEntity
  8
____1
  6
Continuous
 62
     7
100
AcDbLine
 10
673.1336643868178
 20
261.2857336877889
 30
0.0
 11
673.1336643868177
 21
218.7232964396399
 31
0.0
  0
TEXT
  5
CD6
330
318
100
AcDbEntity
  8
____1
  6
Continuous
 62
     7
100
AcDbText
 10
627.4482367586263
 20
242.5992304083248
 30
0.0
 40
5.644444274902344
  1
 型　　番
  7
STYLE1
 72
     1
 11
643.9517895624017
 21
242.5992304083248
 31
0.0
100
AcDbText
  0
LINE
  5
CD7
330
318
100
AcDbEntity
  8
____1
  6
Continuous
 62
     7
100
AcDbLine
 10
616.8374178253218
 20
240.0045150637144
 30
0.0
 11
901.6578285124625
 21
240.0045150637143
 31
0.0
  0
LINE
  5
CD8
330
318
100
AcDbEntity
  8
____1
  6
Continuous
 62
     7
100
AcDbLine
 10
616.8374178253218
 20
229.3639057516771
 30
0.0
 11
743.3981778676732
 21
229.3639057516772
 31
0.0
  0
LINE
  5
CD9
330
318
100
AcDbEntity
  8
____1
  6
Continuous
 62
     7
100
AcDbLine
 10
860.8509668222431
 20
229.3639057516772
 30
0.0
 11
901.6578285124625
 21
229.3639057516771
 31
0.0
  0
TEXT
  5
CDA
330
318
100
AcDbEntity
  8
____1
  6
Continuous
 62
     7
100
AcDbText
 10
616.9560186174221
 20
231.9586210962876
 30
0.0
 40
5.644444274902344
  1
 ＬＹ-８３５
  7
STYLE1
100
AcDbText
  0
LINE
  5
CDB
330
318
100
AcDbEntity
  8
____1
  6
Continuous
 62
     7
100
AcDbLine
 10
616.8374178253218
 20
218.7232964396399
 30
0.0
 11
901.6578285124625
 21
218.7232964396399
 31
0.0
  0
TEXT
  5
CDC
330
318
100
AcDbEntity
  8
____1
  6
Continuous
 62
     7
100
AcDbText
 10
616.9560186174221
 20
221.3180117842504
 30
0.0
 40
5.644444274902344
  1
 ＬＹ-８３５Ｂ
  7
STYLE1
100
AcDbText
  0
LINE
  5
CDD
330
318
100
AcDbEntity
  8
____1
  6
Continuous
 62
     7
100
AcDbLine
 10
743.3981778676732
 20
261.2857336877888
 30
0.0
 11
743.3981778676731
 21
218.7232964396398
 31
0.0
  0
TEXT
  5
CDE
330
318
100
AcDbEntity
  8
____1
  6
Continuous
 62
     7
100
AcDbText
 10
686.020971082343
 20
242.5992304083247
 30
0.0
 40
5.644444274902344
  1
 本体塗装色
  7
STYLE1
 72
     1
 11
706.1919800647351
 21
242.5992304083247
 31
0.0
100
AcDbText
  0
TEXT
  5
CDF
330
318
100
AcDbEntity
  8
____1
  6
Continuous
 62
     7
100
AcDbText
 10
675.0186025464927
 20
231.9586210962874
 30
0.0
 40
5.644444274902344
  1
 ホワイト(艶あり)
  7
STYLE1
 72
     1
 11
706.1919800647351
 21
231.9586210962874
 31
0.0
100
AcDbText
  0
TEXT
  5
CE0
330
318
100
AcDbEntity
  8
____1
  6
Continuous
 62
     7
100
AcDbText
 10
675.0186025464927
 20
221.3180117842502
 30
0.0
 40
5.644444274902344
  1
 ブラック(艶消し)
  7
STYLE1
 72
     1
 11
706.1919800647351
 21
221.3180117842502
 31
0.0
100
AcDbText
  0
TEXT
  5
CE1
330
318
100
AcDbEntity
  8
____1
  6
Continuous
 62
     7
100
AcDbText
 10
771.5353866046997
 20
253.2398397203621
 30
0.0
 40
5.644444274902344
  1
 【付属品】取付ビスセット
  7
STYLE1
 72
     1
 11
817.3785888374091
 21
253.2398397203621
 31
0.0
100
AcDbText
  0
TEXT
  5
CE2
330
318
100
AcDbEntity
  8
____1
  6
Continuous
 62
     0
100
AcDbText
 10
605.4697332554359
 20
231.6175667289022
 30
0.0
 40
4.682630310058594
  1
1
  7
STYLE1
100
AcDbText
  0
LINE
  5
CE3
330
318
100
AcDbEntity
  8
____1
  6
Continuous
 62
     0
100
AcDbLine
 10
601.983055074669
 20
230.5176181007863
 30
0.0
 11
611.8830550746691
 21
230.5176181007863
 31
0.0
  0
LINE
  5
CE4
330
318
100
AcDbEntity
  8
____1
  6
Continuous
 62
     0
100
AcDbLine
 10
606.9330550746689
 20
239.0912695982523
 30
0.0
 11
611.8830550746691
 21
230.5176181007863
 31
0.0
  0
LINE
  5
CE5
330
318
100
AcDbEntity
  8
____1
  6
Continuous
 62
     0
100
AcDbLine
 10
606.9330550746689
 20
239.0912695982523
 30
0.0
 11
601.983055074669
 21
230.5176181007863
 31
0.0
  0
LINE
  5
CE6
330
318
100
AcDbEntity
  8
____1
  6
Continuous
 62
     0
100
AcDbLine
 10
606.5819074287651
 20
228.8364224500842
 30
0.0
 11
601.631907428765
 21
220.2627709526182
 31
0.0
  0
LINE
  5
CE7
330
318
100
AcDbEntity
  8
____1
  6
Continuous
 62
     0
100
AcDbLine
 10
606.5819074287651
 20
228.8364224500842
 30
0.0
 11
611.5319074287647
 21
220.2627709526182
 31
0.0
  0
LINE
  5
CE8
330
318
100
AcDbEntity
  8
____1
  6
Continuous
 62
     0
100
AcDbLine
 10
601.631907428765
 20
220.2627709526182
 30
0.0
 11
611.5319074287647
 21
220.2627709526182
 31
0.0
  0
TEXT
  5
CE9
330
318
100
AcDbEntity
  8
____1
  6
Continuous
 62
     0
100
AcDbText
 10
605.1185856095314
 20
221.362719580734
 30
0.0
 40
4.682630310058594
  1
4
  7
STYLE1
100
AcDbText
  0
TEXT
  5
CEA
330
318
100
AcDbEntity
  8
____1
  6
Continuous
 62
     7
100
AcDbText
 10
749.7237482872346
 20
242.5992304083247
 30
0.0
 40
5.644444274902344
  1
 仕　　様 ／ 頭部の塗装色(本体と同等色)
  7
STYLE1
 72
     1
 11
821.2391437702613
 21
242.5992304083247
 31
0.0
100
AcDbText
  0
TEXT
  5
CEB
330
318
100
AcDbEntity
  8
____1
  6
Continuous
 62
     7
100
AcDbText
 10
749.4168701769709
 20
231.9586210962875
 30
0.0
 40
5.644444274902344
  1
＜壁　側＞ 鉄 皿ﾀｯﾋﾟﾝﾈｼﾞ 5x45
  7
STYLE1
100
AcDbText
  0
TEXT
  5
CEC
330
318
100
AcDbEntity
  8
____1
  6
Continuous
 62
     7
100
AcDbText
 10
749.416870176971
 20
221.3180117842503
 30
0.0
 40
5.644444274902344
  1
＜天板側＞ 鉄 皿ﾀｯﾋﾟﾝﾈｼﾞ 5x16
  7
STYLE1
100
AcDbText
  0
TEXT
  5
CED
330
318
100
AcDbEntity
  8
____1
  6
Continuous
 62
     7
100
AcDbText
 10
866.8582252708953
 20
231.9586210962875
 30
0.0
 40
5.644444274902344
  1
ホワイト
  7
STYLE1
100
AcDbText
  0
TEXT
  5
CEE
330
318
100
AcDbEntity
  8
____1
  6
Continuous
 62
     7
100
AcDbText
 10
866.8582252708953
 20
221.3180117842503
 30
0.0
 40
5.644444274902344
  1
ブラック
  7
STYLE1
100
AcDbText
  0
LINE
  5
CEF
330
318
100
AcDbEntity
  8
____1
  6
Continuous
 62
     7
100
AcDbLine
 10
860.850966822243
 20
240.0045150637143
 30
0.0
 11
860.8509668222428
 21
218.7232964396398
 31
0.0
  0
LINE
  5
CF0
330
318
100
AcDbEntity
  8
____1
  6
Continuous
 62
     7
100
AcDbLine
 10
901.6578285124627
 20
261.2857336877888
 30
0.0
 11
901.6578285124625
 21
218.7232964396398
 31
0.0
  0
TEXT
  5
CF1
330
318
100
AcDbEntity
  8
____1
  6
Continuous
 62
     0
100
AcDbText
 10
783.7861419354593
 20
266.4864471150631
 30
0.0
 40
4.682630310058594
  1
1
  7
STYLE1
100
AcDbText
  0
LINE
  5
CF2
330
318
100
AcDbEntity
  8
____1
  6
Continuous
 62
     0
100
AcDbLine
 10
780.2994637546922
 20
265.3864984869473
 30
0.0
 11
790.1994637546923
 21
265.3864984869473
 31
0.0
  0
LINE
  5
CF3
330
318
100
AcDbEntity
  8
____1
  6
Continuous
 62
     0
100
AcDbLine
 10
785.2494637546921
 20
273.9601499844134
 30
0.0
 11
790.1994637546923
 21
265.3864984869473
 31
0.0
  0
LINE
  5
CF4
330
318
100
AcDbEntity
  8
____1
  6
Continuous
 62
     0
100
AcDbLine
 10
785.2494637546921
 20
273.9601499844134
 30
0.0
 11
780.2994637546922
 21
265.3864984869473
 31
0.0
  0
LINE
  5
CF5
330
318
100
AcDbEntity
  8
____1
  6
Continuous
 62
     0
100
AcDbLine
 10
797.9710362921275
 20
273.9601499844134
 30
0.0
 11
793.0210362921276
 21
265.3864984869473
 31
0.0
  0
LINE
  5
CF6
330
318
100
AcDbEntity
  8
____1
  6
Continuous
 62
     0
100
AcDbLine
 10
797.9710362921275
 20
273.9601499844134
 30
0.0
 11
802.9210362921277
 21
265.3864984869473
 31
0.0
  0
LINE
  5
CF7
330
318
100
AcDbEntity
  8
____1
  6
Continuous
 62
     0
100
AcDbLine
 10
793.0210362921276
 20
265.3864984869473
 30
0.0
 11
802.9210362921277
 21
265.3864984869473
 31
0.0
  0
TEXT
  5
CF8
330
318
100
AcDbEntity
  8
____1
  6
Continuous
 62
     0
100
AcDbText
 10
796.5077144728947
 20
266.4864471150631
 30
0.0
 40
4.682630310058594
  1
3
  7
STYLE1
100
AcDbText
  0
ENDSEC
  0
SECTION
  2
OBJECTS
  0
DICTIONARY
  5
304
330
0
100
AcDbDictionary
281
     1
  3
ACAD_CIP_PREVIOUS_PRODUCT_INFO
350
C6F
  3
ACAD_COLOR
350
313
  3
ACAD_DETAILVIEWSTYLE
350
C69
  3
ACAD_GROUP
350
305
  3
ACAD_LAYOUT
350
311
  3
ACAD_MATERIAL
350
312
  3
ACAD_MLEADERSTYLE
350
C65
  3
ACAD_MLINESTYLE
350
30E
  3
ACAD_PLOTSETTINGS
350
310
  3
ACAD_PLOTSTYLENAME
350
306
  3
ACAD_SCALELIST
350
C53
  3
ACAD_SECTIONVIEWSTYLE
350
C67
  3
ACAD_TABLESTYLE
350
C51
  3
ACAD_VISUALSTYLE
350
C38
  3
ACDB_RECOMPOSE_DATA
350
D73
  3
AcDbVariableDictionary
350
D5E
  3
AcDsDecomposeData
350
D7A
  3
DWGPROPS
350
D74
  0
DICTIONARY
  5
504
330
2FA
100
AcDbDictionary
280
     1
281
     1
  3
ACAD_LAYERSTATES
360
505
  0
DICTIONARY
  5
CFC
330
308
100
AcDbDictionary
280
     1
281
     1
  3
ADSK_XREC_LAYER_RECONCILED
360
CFD
  0
DICTIONARY
  5
CFE
330
328
100
AcDbDictionary
280
     1
281
     1
  3
ADSK_XREC_LAYER_RECONCILED
360
CFF
  0
DICTIONARY
  5
D00
330
329
100
AcDbDictionary
280
     1
281
     1
  3
ADSK_XREC_LAYER_RECONCILED
360
D01
  0
DICTIONARY
  5
D02
330
32A
100
AcDbDictionary
280
     1
281
     1
  3
ADSK_XREC_LAYER_RECONCILED
360
D03
  0
DICTIONARY
  5
D04
330
32B
100
AcDbDictionary
280
     1
281
     1
  3
ADSK_XREC_LAYER_RECONCILED
360
D05
  0
DICTIONARY
  5
D06
330
32C
100
AcDbDictionary
280
     1
281
     1
  3
ADSK_XREC_LAYER_RECONCILED
360
D07
  0
DICTIONARY
  5
D08
330
32D
100
AcDbDictionary
280
     1
281
     1
  3
ADSK_XREC_LAYER_RECONCILED
360
D09
  0
DICTIONARY
  5
D0A
330
32E
100
AcDbDictionary
280
     1
281
     1
  3
ADSK_XREC_LAYER_RECONCILED
360
D0B
  0
DICTIONARY
  5
D0C
330
32F
100
AcDbDictionary
280
     1
281
     1
  3
ADSK_XREC_LAYER_RECONCILED
360
D0D
  0
DICTIONARY
  5
D0E
330
330
100
AcDbDictionary
280
     1
281
     1
  3
ADSK_XREC_LAYER_RECONCILED
360
D0F
  0
DICTIONARY
  5
C79
330
C71
100
AcDbDictionary
280
     1
281
     1
  3
ACAD_SORTENTS
360
C7A
  0
XRECORD
  5
C6F
102
{ACAD_REACTORS
330
304
102
}
330
304
100
AcDbXrecord
280
     1
300
ACDLT
300
2015
300
ACDLT_F_S
  0
DICTIONARY
  5
313
102
{ACAD_REACTORS
330
304
102
}
330
304
100
AcDbDictionary
281
     1
  0
DICTIONARY
  5
C69
102
{ACAD_REACTORS
330
304
102
}
330
304
100
AcDbDictionary
281
     1
  3
Imperial24
350
C6A
  0
DICTIONARY
  5
305
102
{ACAD_REACTORS
330
304
102
}
330
304
100
AcDbDictionary
281
     1
  0
DICTIONARY
  5
311
102
{ACAD_REACTORS
330
304
102
}
330
304
100
AcDbDictionary
281
     1
  3
Model
350
31B
  3
レイアウト1
350
317
  0
DICTIONARY
  5
312
102
{ACAD_REACTORS
330
304
102
}
330
304
100
AcDbDictionary
281
     1
  3
ByBlock
350
C28
  3
ByLayer
350
C20
  3
Global
350
C30
  0
DICTIONARY
  5
C65
102
{ACAD_REACTORS
330
304
102
}
330
304
100
AcDbDictionary
281
     1
  3
Standard
350
C66
  0
DICTIONARY
  5
30E
102
{ACAD_REACTORS
330
304
102
}
330
304
100
AcDbDictionary
281
     1
  3
Standard
350
30F
  0
DICTIONARY
  5
310
102
{ACAD_REACTORS
330
304
102
}
330
304
100
AcDbDictionary
281
     1
  0
ACDBDICTIONARYWDFLT
  5
306
102
{ACAD_REACTORS
330
304
102
}
330
304
100
AcDbDictionary
281
     1
  3
Normal
350
307
100
AcDbDictionaryWithDefault
340
307
  0
DICTIONARY
  5
C53
102
{ACAD_REACTORS
330
304
102
}
330
304
100
AcDbDictionary
281
     1
  3
A0
350
C54
  3
A1
350
C55
  3
A2
350
C56
  3
A3
350
C57
  3
A4
350
C58
  3
A5
350
C59
  3
A6
350
C5A
  3
A7
350
C5B
  3
A8
350
C5C
  3
A9
350
C5D
  3
B0
350
C5E
  3
B1
350
C5F
  3
B2
350
C60
  3
B3
350
C61
  3
B4
350
C62
  3
B5
350
C63
  3
B6
350
C64
  0
DICTIONARY
  5
C67
102
{ACAD_REACTORS
330
304
102
}
330
304
100
AcDbDictionary
281
     1
  3
Imperial24
350
C68
  0
DICTIONARY
  5
C51
102
{ACAD_REACTORS
330
304
102
}
330
304
100
AcDbDictionary
281
     1
  3
Standard
350
C52
  0
DICTIONARY
  5
C38
102
{ACAD_REACTORS
330
304
102
}
330
304
100
AcDbDictionary
281
     1
  3
2dWireframe
350
C3E
  3
Basic
350
C3D
  3
Brighten
350
C44
  3
ColorChange
350
C48
  3
Conceptual
350
C41
  3
Dim
350
C43
  3
EdgeColorOff
350
C50
  3
Facepattern
350
C47
  3
Flat
350
C39
  3
FlatWithEdges
350
C3A
  3
Gouraud
350
C3B
  3
GouraudWithEdges
350
C3C
  3
Hidden
350
C40
  3
JitterOff
350
C4E
  3
Linepattern
350
C46
  3
OverhangOff
350
C4F
  3
Realistic
350
C42
  3
Shaded
350
C4D
  3
Shaded with edges
350
C4C
  3
Shades of Gray
350
C49
  3
Sketchy
350
C4A
  3
Thicken
350
C45
  3
Wireframe
350
C3F
  3
X-Ray
350
C4B
  0
XRECORD
  5
D73
102
{ACAD_REACTORS
330
304
102
}
330
304
100
AcDbXrecord
280
     1
 90
        1
330
C52
  0
DICTIONARY
  5
D5E
102
{ACAD_REACTORS
330
304
102
}
330
304
100
AcDbDictionary
281
     1
  3
CANNOSCALE
350
D64
  3
CMLEADERSTYLE
350
D60
  3
CTABLESTYLE
350
D5F
  3
CVIEWDETAILSTYLE
350
D61
  3
CVIEWSECTIONSTYLE
350
D62
  3
DIMASSOC
350
D70
  3
INDEXCTL
350
D6E
  3
LAYEREVAL
350
D66
  3
LAYERNOTIFY
350
D67
  3
LIGHTINGUNITS
350
D65
  3
MSLTSCALE
350
D63
  3
SORTENTS
350
D6D
  3
XCLIPFRAME
350
D6F
  0
DICTIONARY
  5
D7A
102
{ACAD_REACTORS
330
304
102
}
330
304
100
AcDbDictionary
281
     1
  3
AcDsRecords
350
D7C
  3
AcDsSchemas
350
D7B
1001
ACAD
1070
     2
  0
XRECORD
  5
D74
102
{ACAD_REACTORS
330
304
102
}
330
304
100
AcDbXrecord
280
     1
  1
DWGPROPS COOKIE
  2

  3

  4

  6

  7

  8
峰輝行
  9

300
=
301
=
302
=
303
=
304
=
305
=
306
=
307
=
308
=
309
=
 40
0.0159617708333333
 41
2455539.456631945
 42
2458918.465618843
  1

 90
        0
  0
DICTIONARY
  5
505
102
{ACAD_REACTORS
330
504
102
}
330
504
100
AcDbDictionary
281
     1
  0
XRECORD
  5
CFD
102
{ACAD_REACTORS
330
CFC
102
}
330
CFC
100
AcDbXrecord
280
     1
290
     1
  0
XRECORD
  5
CFF
102
{ACAD_REACTORS
330
CFE
102
}
330
CFE
100
AcDbXrecord
280
     1
290
     1
  0
XRECORD
  5
D01
102
{ACAD_REACTORS
330
D00
102
}
330
D00
100
AcDbXrecord
280
     1
290
     1
  0
XRECORD
  5
D03
102
{ACAD_REACTORS
330
D02
102
}
330
D02
100
AcDbXrecord
280
     1
290
     1
  0
XRECORD
  5
D05
102
{ACAD_REACTORS
330
D04
102
}
330
D04
100
AcDbXrecord
280
     1
290
     1
  0
XRECORD
  5
D07
102
{ACAD_REACTORS
330
D06
102
}
330
D06
100
AcDbXrecord
280
     1
290
     1
  0
XRECORD
  5
D09
102
{ACAD_REACTORS
330
D08
102
}
330
D08
100
AcDbXrecord
280
     1
290
     1
  0
XRECORD
  5
D0B
102
{ACAD_REACTORS
330
D0A
102
}
330
D0A
100
AcDbXrecord
280
     1
290
     1
  0
XRECORD
  5
D0D
102
{ACAD_REACTORS
330
D0C
102
}
330
D0C
100
AcDbXrecord
280
     1
290
     1
  0
XRECORD
  5
D0F
102
{ACAD_REACTORS
330
D0E
102
}
330
D0E
100
AcDbXrecord
280
     1
290
     1
  0
SORTENTSTABLE
  5
C7A
102
{ACAD_REACTORS
330
C79
102
}
330
C79
100
AcDbSortentsTable
330
C71
  0
ACDBDETAILVIEWSTYLE
  5
C6A
102
{ACAD_XDICTIONARY
360
D5B
102
}
102
{ACAD_REACTORS
330
C69
102
}
330
C69
100
AcDbModelDocViewStyle
 70
     0
  3
Imperial24
290
     0
100
AcDbDetailViewStyle
 70
     0
 71
     0
 90
        3
 71
     1
340
309
 40
0.24
340
0
 40
0.24
300

 40
0.36
280
     3
 71
     2
340
30D
 90
       25
 71
     3
340
309
 40
0.24
 90
        1
 40
0.75
 90
        1
300
%<\AcVar ViewType \f "%tc1">% %<\AcVar ViewDetailId>%\PSCALE %<\AcVar ViewScale \f "%sn">%
 71
     4
340
30D
 90
       25
340
30D
 90
       25
280
     0
  0
LAYOUT
  5
31B
102
{ACAD_XDICTIONARY
360
D7F
102
}
102
{ACAD_REACTORS
330
311
102
}
330
311
100
AcDbPlotSettings
  1

  2
クセロPDF2 (一時).pc3
  4
A3
  6

 40
3.174999952316284
 41
3.174999952316284
 42
3.17498779296875
 43
3.17498779296875
 44
419.9466552734374
 45
296.9259948730469
 46
0.0
 47
0.0
 48
425.4639447343082
 49
175.2857336877887
140
1267.458944734306
141
770.6357336877888
142
1.0
143
2.048861521241269
 70
 11952
 72
     1
 73
     0
 74
     4
  7
monochrome.ctb
 75
     0
147
0.4880759336991044
148
-425.4639447343082
149
-175.2857336877887
100
AcDbLayout
  1
Model
 70
     1
 71
     0
 10
0.0
 20
0.0
 11
12.0
 21
9.0
 12
0.0
 22
0.0
 32
0.0
 14
0.0
 24
0.0
 34
0.0
 15
0.0
 25
0.0
 35
0.0
146
0.0
 13
0.0
 23
0.0
 33
0.0
 16
1.0
 26
0.0
 36
0.0
 17
0.0
 27
1.0
 37
0.0
 76
     0
330
318
331
C1E
  0
LAYOUT
  5
317
102
{ACAD_XDICTIONARY
360
D7D
102
}
102
{ACAD_REACTORS
330
311
102
}
330
311
100
AcDbPlotSettings
  1

  2
PX-1700F(ネットワーク)
  4

  6

 40
0.0
 41
0.0
 42
0.0
 43
0.0
 44
0.0
 45
0.0
 46
0.0
 47
0.0
 48
0.0
 49
0.0
140
0.0
141
0.0
142
1.0
143
1.0
 70
   688
 72
     0
 73
     0
 74
     5
  7
monochrome.ctb
 75
    16
147
1.0
148
0.0
149
0.0
100
AcDbLayout
  1
レイアウト1
 70
     1
 71
     1
 10
0.0
 20
0.0
 11
12.0
 21
9.0
 12
0.0
 22
0.0
 32
0.0
 14
1.000000000000000E+20
 24
1.000000000000000E+20
 34
1.000000000000000E+20
 15
-1.000000000000000E+20
 25
-1.000000000000000E+20
 35
-1.000000000000000E+20
146
0.0
 13
0.0
 23
0.0
 33
0.0
 16
1.0
 26
0.0
 36
0.0
 17
0.0
 27
1.0
 37
0.0
 76
     0
330
314
  0
MATERIAL
  5
C28
102
{ACAD_XDICTIONARY
360
C29
102
}
102
{ACAD_REACTORS
330
312
102
}
330
312
100
AcDbMaterial
  1
ByBlock
 72
     0
 43
0.0208333333333333
 43
0.0
 43
0.0
 43
0.0
 43
0.0
 43
0.0208333333333333
 43
0.0
 43
0.0
 43
0.0
 43
0.0
 43
1.0
 43
0.0
 43
0.0
 43
0.0
 43
0.0
 43
1.0
 77
     0
 47
0.0208333333333333
 47
0.0
 47
0.0
 47
0.0
 47
0.0
 47
0.0208333333333333
 47
0.0
 47
0.0
 47
0.0
 47
0.0
 47
1.0
 47
0.0
 47
0.0
 47
0.0
 47
0.0
 47
1.0
171
     0
 49
0.0208333333333333
 49
0.0
 49
0.0
 49
0.0
 49
0.0
 49
0.0208333333333333
 49
0.0
 49
0.0
 49
0.0
 49
0.0
 49
1.0
 49
0.0
 49
0.0
 49
0.0
 49
0.0
 49
1.0
175
     0
142
0.0208333333333333
142
0.0
142
0.0
142
0.0
142
0.0
142
0.0208333333333333
142
0.0
142
0.0
142
0.0
142
0.0
142
1.0
142
0.0
142
0.0
142
0.0
142
0.0
142
1.0
179
     0
144
0.0208333333333333
144
0.0
144
0.0
144
0.0
144
0.0
144
0.0208333333333333
144
0.0
144
0.0
144
0.0
144
0.0
144
1.0
144
0.0
144
0.0
144
0.0
144
0.0
144
1.0
147
0.0208333333333333
147
0.0
147
0.0
147
0.0
147
0.0
147
0.0208333333333333
147
0.0
147
0.0
147
0.0
147
0.0
147
1.0
147
0.0
147
0.0
147
0.0
147
0.0
147
1.0
  0
MATERIAL
  5
C20
102
{ACAD_XDICTIONARY
360
C21
102
}
102
{ACAD_REACTORS
330
312
102
}
330
312
100
AcDbMaterial
  1
ByLayer
 72
     0
 43
0.0208333333333333
 43
0.0
 43
0.0
 43
0.0
 43
0.0
 43
0.0208333333333333
 43
0.0
 43
0.0
 43
0.0
 43
0.0
 43
1.0
 43
0.0
 43
0.0
 43
0.0
 43
0.0
 43
1.0
 77
     0
 47
0.0208333333333333
 47
0.0
 47
0.0
 47
0.0
 47
0.0
 47
0.0208333333333333
 47
0.0
 47
0.0
 47
0.0
 47
0.0
 47
1.0
 47
0.0
 47
0.0
 47
0.0
 47
0.0
 47
1.0
171
     0
 49
0.0208333333333333
 49
0.0
 49
0.0
 49
0.0
 49
0.0
 49
0.0208333333333333
 49
0.0
 49
0.0
 49
0.0
 49
0.0
 49
1.0
 49
0.0
 49
0.0
 49
0.0
 49
0.0
 49
1.0
175
     0
142
0.0208333333333333
142
0.0
142
0.0
142
0.0
142
0.0
142
0.0208333333333333
142
0.0
142
0.0
142
0.0
142
0.0
142
1.0
142
0.0
142
0.0
142
0.0
142
0.0
142
1.0
179
     0
144
0.0208333333333333
144
0.0
144
0.0
144
0.0
144
0.0
144
0.0208333333333333
144
0.0
144
0.0
144
0.0
144
0.0
144
1.0
144
0.0
144
0.0
144
0.0
144
0.0
144
1.0
147
0.0208333333333333
147
0.0
147
0.0
147
0.0
147
0.0
147
0.0208333333333333
147
0.0
147
0.0
147
0.0
147
0.0
147
1.0
147
0.0
147
0.0
147
0.0
147
0.0
147
1.0
  0
MATERIAL
  5
C30
102
{ACAD_XDICTIONARY
360
C31
102
}
102
{ACAD_REACTORS
330
312
102
}
330
312
100
AcDbMaterial
  1
Global
 72
     0
 43
0.0208333333333333
 43
0.0
 43
0.0
 43
0.0
 43
0.0
 43
0.0208333333333333
 43
0.0
 43
0.0
 43
0.0
 43
0.0
 43
1.0
 43
0.0
 43
0.0
 43
0.0
 43
0.0
 43
1.0
 77
     0
 47
0.0208333333333333
 47
0.0
 47
0.0
 47
0.0
 47
0.0
 47
0.0208333333333333
 47
0.0
 47
0.0
 47
0.0
 47
0.0
 47
1.0
 47
0.0
 47
0.0
 47
0.0
 47
0.0
 47
1.0
171
     0
 49
0.0208333333333333
 49
0.0
 49
0.0
 49
0.0
 49
0.0
 49
0.0208333333333333
 49
0.0
 49
0.0
 49
0.0
 49
0.0
 49
1.0
 49
0.0
 49
0.0
 49
0.0
 49
0.0
 49
1.0
175
     0
142
0.0208333333333333
142
0.0
142
0.0
142
0.0
142
0.0
142
0.0208333333333333
142
0.0
142
0.0
142
0.0
142
0.0
142
1.0
142
0.0
142
0.0
142
0.0
142
0.0
142
1.0
179
     0
144
0.0208333333333333
144
0.0
144
0.0
144
0.0
144
0.0
144
0.0208333333333333
144
0.0
144
0.0
144
0.0
144
0.0
144
1.0
144
0.0
144
0.0
144
0.0
144
0.0
144
1.0
147
0.0208333333333333
147
0.0
147
0.0
147
0.0
147
0.0
147
0.0208333333333333
147
0.0
147
0.0
147
0.0
147
0.0
147
1.0
147
0.0
147
0.0
147
0.0
147
0.0
147
1.0
  0
MLEADERSTYLE
  5
C66
102
{ACAD_XDICTIONARY
360
DB6
102
}
102
{ACAD_REACTORS
330
C65
102
}
330
C65
100
AcDbMLeaderStyle
170
     2
171
     1
172
     0
 90
        2
 40
0.0
 41
0.0
173
     1
 91
-1056964608
340
30B
 92
       -2
290
     1
 42
0.09
291
     1
 43
0.36
  3
Standard
 44
0.18
300

342
309
174
     1
178
     6
175
     1
176
     0
 93
-1056964608
 45
0.18
292
     0
297
     0
 46
0.18
 94
-1056964608
 47
1.0
 49
1.0
140
1.0
293
     1
141
0.0
294
     1
177
     0
142
1.0
295
     0
296
     0
143
0.125
1001
ACAD_MLEADERVER
1070
     2
  0
MLINESTYLE
  5
30F
102
{ACAD_REACTORS
330
30E
102
}
330
30E
100
AcDbMlineStyle
  2
STANDARD
 70
     0
  3

 62
   256
 51
90.0
 52
90.0
 71
     2
 49
0.5
 62
   256
  6
BYLAYER
 49
-0.5
 62
   256
  6
BYLAYER
  0
ACDBPLACEHOLDER
  5
307
102
{ACAD_REACTORS
330
306
102
}
330
306
  0
SCALE
  5
C54
102
{ACAD_REACTORS
330
C53
102
}
330
C53
100
AcDbScale
 70
     0
300
1:1
140
1.0
141
1.0
290
     1
  0
SCALE
  5
C55
102
{ACAD_REACTORS
330
C53
102
}
330
C53
100
AcDbScale
 70
     0
300
1/128" = 1'-0"
140
0.0078125
141
12.0
290
     0
  0
SCALE
  5
C56
102
{ACAD_REACTORS
330
C53
102
}
330
C53
100
AcDbScale
 70
     0
300
1/64" = 1'-0"
140
0.015625
141
12.0
290
     0
  0
SCALE
  5
C57
102
{ACAD_REACTORS
330
C53
102
}
330
C53
100
AcDbScale
 70
     0
300
1/32" = 1'-0"
140
0.03125
141
12.0
290
     0
  0
SCALE
  5
C58
102
{ACAD_REACTORS
330
C53
102
}
330
C53
100
AcDbScale
 70
     0
300
1/16" = 1'-0"
140
0.0625
141
12.0
290
     0
  0
SCALE
  5
C59
102
{ACAD_REACTORS
330
C53
102
}
330
C53
100
AcDbScale
 70
     0
300
3/32" = 1'-0"
140
0.09375
141
12.0
290
     0
  0
SCALE
  5
C5A
102
{ACAD_REACTORS
330
C53
102
}
330
C53
100
AcDbScale
 70
     0
300
1/8" = 1'-0"
140
0.125
141
12.0
290
     0
  0
SCALE
  5
C5B
102
{ACAD_REACTORS
330
C53
102
}
330
C53
100
AcDbScale
 70
     0
300
3/16" = 1'-0"
140
0.1875
141
12.0
290
     0
  0
SCALE
  5
C5C
102
{ACAD_REACTORS
330
C53
102
}
330
C53
100
AcDbScale
 70
     0
300
1/4" = 1'-0"
140
0.25
141
12.0
290
     0
  0
SCALE
  5
C5D
102
{ACAD_REACTORS
330
C53
102
}
330
C53
100
AcDbScale
 70
     0
300
3/8" = 1'-0"
140
0.375
141
12.0
290
     0
  0
SCALE
  5
C5E
102
{ACAD_REACTORS
330
C53
102
}
330
C53
100
AcDbScale
 70
     0
300
1/2" = 1'-0"
140
0.5
141
12.0
290
     0
  0
SCALE
  5
C5F
102
{ACAD_REACTORS
330
C53
102
}
330
C53
100
AcDbScale
 70
     0
300
3/4" = 1'-0"
140
0.75
141
12.0
290
     0
  0
SCALE
  5
C60
102
{ACAD_REACTORS
330
C53
102
}
330
C53
100
AcDbScale
 70
     0
300
1" = 1'-0"
140
1.0
141
12.0
290
     0
  0
SCALE
  5
C61
102
{ACAD_REACTORS
330
C53
102
}
330
C53
100
AcDbScale
 70
     0
300
1-1/2" = 1'-0"
140
1.5
141
12.0
290
     0
  0
SCALE
  5
C62
102
{ACAD_REACTORS
330
C53
102
}
330
C53
100
AcDbScale
 70
     0
300
3" = 1'-0"
140
3.0
141
12.0
290
     0
  0
SCALE
  5
C63
102
{ACAD_REACTORS
330
C53
102
}
330
C53
100
AcDbScale
 70
     0
300
6" = 1'-0"
140
6.0
141
12.0
290
     0
  0
SCALE
  5
C64
102
{ACAD_REACTORS
330
C53
102
}
330
C53
100
AcDbScale
 70
     0
300
1'-0" = 1'-0"
140
12.0
141
12.0
290
     0
  0
ACDBSECTIONVIEWSTYLE
  5
C68
102
{ACAD_XDICTIONARY
360
D59
102
}
102
{ACAD_REACTORS
330
C67
102
}
330
C67
100
AcDbModelDocViewStyle
 70
     0
  3
Imperial24
290
     0
100
AcDbSectionViewStyle
 70
     0
 71
     0
 90
       78
 71
     1
340
309
 40
0.24
340
0
340
0
 40
0.24
300
I, O, Q, S, X, Z
 40
0.48
 90
        3
 40
0.18
 90
        1
 71
     2
340
30D
 90
       25
340
30D
 90
       50
 40
0.24
 40
0.0
 40
0.24
 71
     3
340
309
 40
0.24
 90
        1
 40
0.75
 90
        1
300
%<\AcVar ViewType \f "%tc1">% %<\AcVar ViewSectionStartId>%-%<\AcVar ViewSectionEndId>%\PSCALE %<\AcVar ViewScale \f "%sn">%
 71
     4
300
ANSI31
 40
1.0
 90
        0
290
     0
290
     0
 90
        6
 40
0.0
 40
1.570796326794896
 40
0.2617993877991494
 40
1.308996938995747
 40
-0.2617993877991494
 40
1.832595714594046
  0
TABLESTYLE
  5
C52
102
{ACAD_XDICTIONARY
360
D71
102
}
102
{ACAD_REACTORS
330
C51
102
}
330
C51
100
AcDbTableStyle
  3
Standard
 70
     0
 71
     0
 40
0.06
 41
0.06
280
     0
281
     0
  7
STANDARD
140
0.18
170
     2
 62
     0
 63
     7
283
     0
274
    -2
284
     1
 64
     0
275
    -2
285
     1
 65
     0
276
    -2
286
     1
 66
     0
277
    -2
287
     1
 67
     0
278
    -2
288
     1
 68
     0
279
    -2
289
     1
 69
     0
  7
STANDARD
140
0.25
170
     5
 62
     0
 63
     7
283
     0
274
    -2
284
     1
 64
     0
275
    -2
285
     1
 65
     0
276
    -2
286
     1
 66
     0
277
    -2
287
     1
 67
     0
278
    -2
288
     1
 68
     0
279
    -2
289
     1
 69
     0
  7
STANDARD
140
0.18
170
     5
 62
     0
 63
     7
283
     0
274
    -2
284
     1
 64
     0
275
    -2
285
     1
 65
     0
276
    -2
286
     1
 66
     0
277
    -2
287
     1
 67
     0
278
    -2
288
     1
 68
     0
279
    -2
289
     1
 69
     0
  0
VISUALSTYLE
  5
C3E
102
{ACAD_XDICTIONARY
360
D8E
102
}
102
{ACAD_REACTORS
330
C38
102
}
330
C38
100
AcDbVisualStyle
  2
2dWireframe
 70
     4
 71
     0
 72
     2
 73
     0
 90
        0
 40
-0.6
 41
-30.0
 62
     5
 63
     7
 74
     1
 91
        4
 64
     7
 65
   257
 75
     1
175
     1
 42
1.0
 92
        0
 66
   257
 43
1.0
 76
     1
 77
     6
 78
     2
 67
     7
 79
     5
170
     0
171
     0
290
     0
174
     0
 93
        1
 44
0.0
173
     0
291
     0
 45
0.0
1001
ACAD
1000
AcDbSavedByObjectVersion
1070
     0
  0
VISUALSTYLE
  5
C3D
102
{ACAD_XDICTIONARY
360
D8C
102
}
102
{ACAD_REACTORS
330
C38
102
}
330
C38
100
AcDbVisualStyle
  2
Basic
 70
     7
 71
     1
 72
     0
 73
     1
 90
        0
 40
-0.6
 41
-30.0
 62
     5
 63
     7
 74
     0
 91
        4
 64
     7
 65
   257
 75
     1
175
     1
 42
1.0
 92
        8
 66
     7
 43
1.0
 76
     1
 77
     6
 78
     2
 67
     7
 79
     5
170
     0
171
     0
290
     0
174
     0
 93
        1
 44
0.0
173
     0
291
     1
 45
0.0
1001
ACAD
1000
AcDbSavedByObjectVersion
1070
     0
  0
VISUALSTYLE
  5
C44
102
{ACAD_XDICTIONARY
360
D9A
102
}
102
{ACAD_REACTORS
330
C38
102
}
330
C38
100
AcDbVisualStyle
  2
Brighten
 70
    12
 71
     2
 72
     2
 73
     0
 90
        0
 40
-0.6
 41
-30.0
 62
     5
 63
     7
 74
     1
 91
        4
 64
     7
 65
   257
 75
     1
175
     1
 42
1.0
 92
        8
 66
     7
 43
1.0
 76
     1
 77
     6
 78
     2
 67
     7
 79
     5
170
     0
171
     0
290
     0
174
     0
 93
        1
 44
50.0
173
     0
291
     1
 45
0.0
1001
ACAD
1000
AcDbSavedByObjectVersion
1070
     0
  0
VISUALSTYLE
  5
C48
102
{ACAD_XDICTIONARY
360
DA2
102
}
102
{ACAD_REACTORS
330
C38
102
}
330
C38
100
AcDbVisualStyle
  2
ColorChange
 70
    16
 71
     2
 72
     2
 73
     3
 90
        0
 40
-0.6
 41
-30.0
 62
     5
 63
     8
 74
     1
 91
        4
 64
     7
 65
   257
 75
     1
175
     1
 42
1.0
 92
        8
 66
     8
 43
1.0
 76
     1
 77
     6
 78
     2
 67
     7
 79
     5
170
     0
171
     0
290
     0
174
     0
 93
        1
 44
0.0
173
     0
291
     1
 45
0.0
1001
ACAD
1000
AcDbSavedByObjectVersion
1070
     0
  0
VISUALSTYLE
  5
C41
102
{ACAD_XDICTIONARY
360
D94
102
}
102
{ACAD_REACTORS
330
C38
102
}
330
C38
100
AcDbVisualStyle
  2
Conceptual
 70
     9
 71
     3
 72
     2
 73
     0
 90
        0
 40
-0.6
 41
-30.0
 62
     5
 63
     7
 74
     2
 91
        2
 64
     7
 65
   257
 75
     1
175
     1
 42
179.0
 92
        8
 66
     7
 43
1.0
 76
     1
 77
     6
 78
     2
 67
     7
 79
     3
170
     0
171
     0
290
     0
174
     0
 93
        1
 44
0.0
173
     0
291
     0
 45
0.0
1001
ACAD
1000
AcDbSavedByObjectVersion
1070
     0
  0
VISUALSTYLE
  5
C43
102
{ACAD_XDICTIONARY
360
D98
102
}
102
{ACAD_REACTORS
330
C38
102
}
330
C38
100
AcDbVisualStyle
  2
Dim
 70
    11
 71
     2
 72
     2
 73
     0
 90
        0
 40
-0.6
 41
-30.0
 62
     5
 63
     7
 74
     1
 91
        4
 64
     7
 65
   257
 75
     1
175
     1
 42
1.0
 92
        8
 66
     7
 43
1.0
 76
     1
 77
     6
 78
     2
 67
     7
 79
     5
170
     0
171
     0
290
     0
174
     0
 93
        1
 44
-50.0
173
     0
291
     1
 45
0.0
1001
ACAD
1000
AcDbSavedByObjectVersion
1070
     0
  0
VISUALSTYLE
  5
C50
102
{ACAD_XDICTIONARY
360
DB2
102
}
102
{ACAD_REACTORS
330
C38
102
}
330
C38
100
AcDbVisualStyle
  2
EdgeColorOff
 70
    22
 71
     2
 72
     2
 73
     0
 90
        0
 40
-0.6
 41
-30.0
 62
     5
 63
     7
 74
     1
 91
        4
 64
     7
 65
   257
 75
     1
175
     1
 42
1.0
 92
        8
 66
     7
 43
1.0
 76
     1
 77
     6
 78
     2
 67
     7
 79
     5
170
     0
171
     0
290
     0
174
     0
 93
        1
 44
0.0
173
     0
291
     1
 45
0.0
1001
ACAD
1000
AcDbSavedByObjectVersion
1070
     0
  0
VISUALSTYLE
  5
C47
102
{ACAD_XDICTIONARY
360
DA0
102
}
102
{ACAD_REACTORS
330
C38
102
}
330
C38
100
AcDbVisualStyle
  2
Facepattern
 70
    15
 71
     2
 72
     2
 73
     0
 90
        0
 40
-0.6
 41
-30.0
 62
     5
 63
     7
 74
     1
 91
        4
 64
     7
 65
   257
 75
     1
175
     1
 42
1.0
 92
        8
 66
     7
 43
1.0
 76
     1
 77
     6
 78
     2
 67
     7
 79
     5
170
     0
171
     0
290
     0
174
     0
 93
        1
 44
0.0
173
     0
291
     1
 45
0.0
1001
ACAD
1000
AcDbSavedByObjectVersion
1070
     0
  0
VISUALSTYLE
  5
C39
102
{ACAD_XDICTIONARY
360
D84
102
}
102
{ACAD_REACTORS
330
C38
102
}
330
C38
100
AcDbVisualStyle
  2
Flat
 70
     0
 71
     2
 72
     1
 73
     1
 90
        2
 40
-0.6
 41
30.0
 62
     5
 63
     7
 74
     0
 91
        0
 64
     7
 65
   257
 75
     1
175
     1
 42
1.0
 92
        8
 66
     7
 43
1.0
 76
     1
 77
     6
 78
     2
 67
     7
 79
     5
170
     0
171
     0
290
     0
174
     0
 93
       13
 44
0.0
173
     0
291
     1
 45
0.0
1001
ACAD
1000
AcDbSavedByObjectVersion
1070
     0
  0
VISUALSTYLE
  5
C3A
102
{ACAD_XDICTIONARY
360
D86
102
}
102
{ACAD_REACTORS
330
C38
102
}
330
C38
100
AcDbVisualStyle
  2
FlatWithEdges
 70
     1
 71
     2
 72
     1
 73
     1
 90
        2
 40
-0.6
 41
30.0
 62
     5
 63
     7
 74
     1
 91
        0
 64
     7
 65
   257
 75
     1
175
     1
 42
1.0
 92
        0
 66
   257
 43
1.0
 76
     1
 77
     6
 78
     2
 67
     7
 79
     5
170
     0
171
     0
290
     0
174
     0
 93
       13
 44
0.0
173
     0
291
     1
 45
0.0
1001
ACAD
1000
AcDbSavedByObjectVersion
1070
     0
  0
VISUALSTYLE
  5
C3B
102
{ACAD_XDICTIONARY
360
D88
102
}
102
{ACAD_REACTORS
330
C38
102
}
330
C38
100
AcDbVisualStyle
  2
Gouraud
 70
     2
 71
     2
 72
     2
 73
     1
 90
        2
 40
-0.6
 41
30.0
 62
     5
 63
     7
 74
     0
 91
        0
 64
     7
 65
   257
 75
     1
175
     1
 42
1.0
 92
        0
 66
     7
 43
1.0
 76
     1
 77
     6
 78
     2
 67
     7
 79
     5
170
     0
171
     0
290
     0
174
     0
 93
       13
 44
0.0
173
     0
291
     1
 45
0.0
1001
ACAD
1000
AcDbSavedByObjectVersion
1070
     0
  0
VISUALSTYLE
  5
C3C
102
{ACAD_XDICTIONARY
360
D8A
102
}
102
{ACAD_REACTORS
330
C38
102
}
330
C38
100
AcDbVisualStyle
  2
GouraudWithEdges
 70
     3
 71
     2
 72
     2
 73
     1
 90
        2
 40
-0.6
 41
30.0
 62
     5
 63
     7
 74
     1
 91
        0
 64
     7
 65
   257
 75
     1
175
     1
 42
1.0
 92
        0
 66
   257
 43
1.0
 76
     1
 77
     6
 78
     2
 67
     7
 79
     5
170
     0
171
     0
290
     0
174
     0
 93
       13
 44
0.0
173
     0
291
     1
 45
0.0
1001
ACAD
1000
AcDbSavedByObjectVersion
1070
     0
  0
VISUALSTYLE
  5
C40
102
{ACAD_XDICTIONARY
360
D92
102
}
102
{ACAD_REACTORS
330
C38
102
}
330
C38
100
AcDbVisualStyle
  2
Hidden
 70
     6
 71
     1
 72
     2
 73
     2
 90
        0
 40
-0.6
 41
-30.0
 62
     5
 63
     7
 74
     2
 91
        2
 64
     7
 65
   257
 75
     2
175
     1
 42
40.0
 92
        0
 66
   257
 43
1.0
 76
     1
 77
     6
 78
     2
 67
     7
 79
     3
170
     0
171
     0
290
     0
174
     0
 93
        1
 44
0.0
173
     0
291
     0
 45
0.0
1001
ACAD
1000
AcDbSavedByObjectVersion
1070
     0
  0
VISUALSTYLE
  5
C4E
102
{ACAD_XDICTIONARY
360
DAE
102
}
102
{ACAD_REACTORS
330
C38
102
}
330
C38
100
AcDbVisualStyle
  2
JitterOff
 70
    20
 71
     2
 72
     2
 73
     0
 90
        0
 40
-0.6
 41
-30.0
 62
     5
 63
     7
 74
     1
 91
        4
 64
     7
 65
   257
 75
     1
175
     1
 42
1.0
 92
       10
 66
     7
 43
1.0
 76
     1
 77
     6
 78
     2
 67
     7
 79
     5
170
     0
171
     0
290
     0
174
     0
 93
        1
 44
0.0
173
     0
291
     1
 45
0.0
1001
ACAD
1000
AcDbSavedByObjectVersion
1070
     0
  0
VISUALSTYLE
  5
C46
102
{ACAD_XDICTIONARY
360
D9E
102
}
102
{ACAD_REACTORS
330
C38
102
}
330
C38
100
AcDbVisualStyle
  2
Linepattern
 70
    14
 71
     2
 72
     2
 73
     0
 90
        0
 40
-0.6
 41
-30.0
 62
     5
 63
     7
 74
     1
 91
        4
 64
     7
 65
   257
 75
     7
175
     7
 42
1.0
 92
        8
 66
     7
 43
1.0
 76
     1
 77
     6
 78
     2
 67
     7
 79
     5
170
     0
171
     0
290
     0
174
     0
 93
        1
 44
0.0
173
     0
291
     1
 45
0.0
1001
ACAD
1000
AcDbSavedByObjectVersion
1070
     0
  0
VISUALSTYLE
  5
C4F
102
{ACAD_XDICTIONARY
360
DB0
102
}
102
{ACAD_REACTORS
330
C38
102
}
330
C38
100
AcDbVisualStyle
  2
OverhangOff
 70
    21
 71
     2
 72
     2
 73
     0
 90
        0
 40
-0.6
 41
-30.0
 62
     5
 63
     7
 74
     1
 91
        4
 64
     7
 65
   257
 75
     1
175
     1
 42
1.0
 92
        9
 66
     7
 43
1.0
 76
     1
 77
     6
 78
     2
 67
     7
 79
     5
170
     0
171
     0
290
     0
174
     0
 93
        1
 44
0.0
173
     0
291
     1
 45
0.0
1001
ACAD
1000
AcDbSavedByObjectVersion
1070
     0
  0
VISUALSTYLE
  5
C42
102
{ACAD_XDICTIONARY
360
D96
102
}
102
{ACAD_REACTORS
330
C38
102
}
330
C38
100
AcDbVisualStyle
  2
Realistic
 70
     8
 71
     2
 72
     3
 73
     0
 90
        2
 40
-0.6
 41
30.0
 62
     5
 63
     7
 74
     0
 91
        0
 64
     7
 65
   257
 75
     1
175
     1
 42
1.0
 92
        8
 66
   257
 43
1.0
 76
     1
 77
     6
 78
     2
 67
     7
 79
     3
170
     0
171
     0
290
     0
174
     0
 93
       13
 44
0.0
173
     0
291
     0
 45
0.0
1001
ACAD
1000
AcDbSavedByObjectVersion
1070
     0
  0
VISUALSTYLE
  5
C4D
102
{ACAD_XDICTIONARY
360
DAC
102
}
102
{ACAD_REACTORS
330
C38
102
}
330
C38
100
AcDbVisualStyle
  2
Shaded
 70
    27
 71
     2
 72
     2
 73
     1
 90
        2
 40
-0.6
 41
30.0
 62
     5
 63
     7
 74
     0
 91
        4
 64
     7
 65
   257
 75
     1
175
     1
 42
1.0
 92
        8
 66
   257
 43
1.0
 76
     1
 77
     6
 78
     2
 67
     8
 79
     3
170
     0
171
     0
290
     0
174
     0
 93
        5
 44
0.0
173
     0
291
     0
 45
0.0
1001
ACAD
1000
AcDbSavedByObjectVersion
1070
     0
  0
VISUALSTYLE
  5
C4C
102
{ACAD_XDICTIONARY
360
DAA
102
}
102
{ACAD_REACTORS
330
C38
102
}
330
C38
100
AcDbVisualStyle
  2
Shaded with edges
 70
    26
 71
     2
 72
     2
 73
     1
 90
        2
 40
-0.6
 41
30.0
 62
     5
 63
     7
 74
     1
 91
       10
 64
     7
 65
   257
 75
     2
175
     1
 42
1.0
 92
        8
 66
   257
 43
1.0
 76
     1
 77
     6
 78
     2
 67
     7
 79
     3
170
     0
171
     0
290
     0
174
     0
 93
        5
 44
0.0
173
     0
291
     0
 45
0.0
1001
ACAD
1000
AcDbSavedByObjectVersion
1070
     0
  0
VISUALSTYLE
  5
C49
102
{ACAD_XDICTIONARY
360
DA4
102
}
102
{ACAD_REACTORS
330
C38
102
}
330
C38
100
AcDbVisualStyle
  2
Shades of Gray
 70
    23
 71
     2
 72
     2
 73
     3
 90
        0
 40
-0.6
 41
-30.0
 62
     5
 63
     7
 74
     2
 91
        2
 64
     7
 65
     7
 75
     1
175
     1
 42
40.0
 92
        8
 66
     7
 43
1.0
 76
     1
 77
     6
 78
     2
 67
     7
 79
     3
170
     0
171
     0
290
     0
174
     0
 93
        1
 44
0.0
173
     0
291
     0
 45
0.0
1001
ACAD
1000
AcDbSavedByObjectVersion
1070
     0
  0
VISUALSTYLE
  5
C4A
102
{ACAD_XDICTIONARY
360
DA6
102
}
102
{ACAD_REACTORS
330
C38
102
}
330
C38
100
AcDbVisualStyle
  2
Sketchy
 70
    24
 71
     1
 72
     2
 73
     2
 90
        0
 40
-0.6
 41
-30.0
 62
     5
 63
     7
 74
     2
 91
        2
 64
     7
 65
     7
 75
     1
175
     1
 42
40.0
 92
       11
 66
     7
 43
1.0
 76
     1
 77
     6
 78
     2
 67
     7
 79
     6
170
     0
171
     0
290
     0
174
     0
 93
        1
 44
0.0
173
     0
291
     0
 45
0.0
1001
ACAD
1000
AcDbSavedByObjectVersion
1070
     0
  0
VISUALSTYLE
  5
C45
102
{ACAD_XDICTIONARY
360
D9C
102
}
102
{ACAD_REACTORS
330
C38
102
}
330
C38
100
AcDbVisualStyle
  2
Thicken
 70
    13
 71
     2
 72
     2
 73
     0
 90
        0
 40
-0.6
 41
-30.0
 62
     5
 63
     7
 74
     1
 91
        4
 64
     7
 65
   257
 75
     1
175
     1
 42
1.0
 92
       12
 66
     7
 43
1.0
 76
     1
 77
     6
 78
     2
 67
     7
 79
     5
170
     0
171
     0
290
     0
174
     0
 93
        1
 44
0.0
173
     0
291
     1
 45
0.0
1001
ACAD
1000
AcDbSavedByObjectVersion
1070
     0
  0
VISUALSTYLE
  5
C3F
102
{ACAD_XDICTIONARY
360
D90
102
}
102
{ACAD_REACTORS
330
C38
102
}
330
C38
100
AcDbVisualStyle
  2
Wireframe
 70
     5
 71
     0
 72
     2
 73
     0
 90
        0
 40
-0.6
 41
-30.0
 62
     5
 63
     7
 74
     1
 91
        4
 64
     7
 65
   257
 75
     1
175
     1
 42
1.0
 92
        0
 66
   257
 43
1.0
 76
     1
 77
     6
 78
     2
 67
     7
 79
     3
170
     0
171
     0
290
     0
174
     0
 93
        1
 44
0.0
173
     0
291
     0
 45
0.0
1001
ACAD
1000
AcDbSavedByObjectVersion
1070
     0
  0
VISUALSTYLE
  5
C4B
102
{ACAD_XDICTIONARY
360
DA8
102
}
102
{ACAD_REACTORS
330
C38
102
}
330
C38
100
AcDbVisualStyle
  2
X-Ray
 70
    25
 71
     2
 72
     2
 73
     1
 90
        1
 40
0.5
 41
-30.0
 62
     5
 63
     7
 74
     1
 91
        0
 64
     7
 65
   257
 75
     1
175
     1
 42
1.0
 92
        8
 66
     7
 43
1.0
 76
     1
 77
     6
 78
     2
 67
     7
 79
     3
170
     0
171
     0
290
     0
174
     0
 93
       13
 44
0.0
173
     0
291
     0
 45
0.0
1001
ACAD
1000
AcDbSavedByObjectVersion
1070
     0
  0
DICTIONARYVAR
  5
D64
102
{ACAD_REACTORS
330
D5E
102
}
330
D5E
100
DictionaryVariables
280
     0
  1
1:1
  0
DICTIONARYVAR
  5
D60
102
{ACAD_REACTORS
330
D5E
102
}
330
D5E
100
DictionaryVariables
280
     0
  1
STANDARD
  0
DICTIONARYVAR
  5
D5F
102
{ACAD_REACTORS
330
D5E
102
}
330
D5E
100
DictionaryVariables
280
     0
  1
STANDARD
  0
DICTIONARYVAR
  5
D61
102
{ACAD_REACTORS
330
D5E
102
}
330
D5E
100
DictionaryVariables
280
     0
  1
Imperial24
  0
DICTIONARYVAR
  5
D62
102
{ACAD_REACTORS
330
D5E
102
}
330
D5E
100
DictionaryVariables
280
     0
  1
Imperial24
  0
DICTIONARYVAR
  5
D70
102
{ACAD_REACTORS
330
D5E
102
}
330
D5E
100
DictionaryVariables
280
     0
  1
1
  0
DICTIONARYVAR
  5
D6E
102
{ACAD_REACTORS
330
D5E
102
}
330
D5E
100
DictionaryVariables
280
     0
  1
0
  0
DICTIONARYVAR
  5
D66
102
{ACAD_REACTORS
330
D5E
102
}
330
D5E
100
DictionaryVariables
280
     0
  1
1
  0
DICTIONARYVAR
  5
D67
102
{ACAD_REACTORS
330
D5E
102
}
330
D5E
100
DictionaryVariables
280
     0
  1
15
  0
DICTIONARYVAR
  5
D65
102
{ACAD_REACTORS
330
D5E
102
}
330
D5E
100
DictionaryVariables
280
     0
  1
0
  0
DICTIONARYVAR
  5
D63
102
{ACAD_REACTORS
330
D5E
102
}
330
D5E
100
DictionaryVariables
280
     0
  1
0
  0
DICTIONARYVAR
  5
D6D
102
{ACAD_REACTORS
330
D5E
102
}
330
D5E
100
DictionaryVariables
280
     0
  1
127
  0
DICTIONARYVAR
  5
D6F
102
{ACAD_REACTORS
330
D5E
102
}
330
D5E
100
DictionaryVariables
280
     0
  1
0
  0
DICTIONARY
  5
D7C
102
{ACAD_REACTORS
330
D7A
102
}
330
D7A
100
AcDbDictionary
281
     1
  0
DICTIONARY
  5
D7B
102
{ACAD_REACTORS
330
D7A
102
}
330
D7A
100
AcDbDictionary
281
     1
  3
2129718440
350
D75
  3
2129718448
350
D76
  3
2129718456
350
D77
  3
2129718464
350
D78
  3
2129718472
350
D79
  0
DICTIONARY
  5
D5B
330
C6A
100
AcDbDictionary
280
     1
281
     1
  3
ACAD_XREC_ROUNDTRIP
360
DB9
  0
DICTIONARY
  5
D7F
330
31B
100
AcDbDictionary
280
     1
281
     1
  3
ACAD_XREC_ROUNDTRIP
360
D80
  0
DICTIONARY
  5
D7D
330
317
100
AcDbDictionary
280
     1
281
     1
  3
ACAD_XREC_ROUNDTRIP
360
D7E
  0
DICTIONARY
  5
C29
330
C28
100
AcDbDictionary
280
     1
281
     1
  3
ACAD_XREC_ROUNDTRIP
360
D82
  3
BUMPTILE
360
C2B
  3
DIFFUSETILE
360
C2A
  3
OPACITYTILE
360
C2E
  3
REFLECTIONTILE
360
C2D
  3
REFRACTIONTILE
360
C2F
  3
SPECULARTILE
360
C2C
  0
DICTIONARY
  5
C21
330
C20
100
AcDbDictionary
280
     1
281
     1
  3
ACAD_XREC_ROUNDTRIP
360
D81
  3
BUMPTILE
360
C23
  3
DIFFUSETILE
360
C22
  3
OPACITYTILE
360
C26
  3
REFLECTIONTILE
360
C25
  3
REFRACTIONTILE
360
C27
  3
SPECULARTILE
360
C24
  0
DICTIONARY
  5
C31
330
C30
100
AcDbDictionary
280
     1
281
     1
  3
ACAD_XREC_ROUNDTRIP
360
D83
  3
BUMPTILE
360
C33
  3
DIFFUSETILE
360
C32
  3
OPACITYTILE
360
C36
  3
REFLECTIONTILE
360
C35
  3
REFRACTIONTILE
360
C37
  3
SPECULARTILE
360
C34
  0
DICTIONARY
  5
DB6
330
C66
100
AcDbDictionary
280
     1
281
     1
  3
ACAD_XREC_ROUNDTRIP
360
DB7
  0
DICTIONARY
  5
D59
330
C68
100
AcDbDictionary
280
     1
281
     1
  3
ACAD_XREC_ROUNDTRIP
360
DB8
  0
DICTIONARY
  5
D71
330
C52
100
AcDbDictionary
280
     1
281
     1
  3
ACAD_ROUNDTRIP_2008_TABLESTYLE_CELLSTYLEMAP
360
D72
  3
ACAD_XREC_ROUNDTRIP
360
DB4
  0
DICTIONARY
  5
D8E
330
C3E
100
AcDbDictionary
280
     1
281
     1
  3
ACAD_XREC_ROUNDTRIP
360
D8F
  0
DICTIONARY
  5
D8C
330
C3D
100
AcDbDictionary
280
     1
281
     1
  3
ACAD_XREC_ROUNDTRIP
360
D8D
  0
DICTIONARY
  5
D9A
330
C44
100
AcDbDictionary
280
     1
281
     1
  3
ACAD_XREC_ROUNDTRIP
360
D9B
  0
DICTIONARY
  5
DA2
330
C48
100
AcDbDictionary
280
     1
281
     1
  3
ACAD_XREC_ROUNDTRIP
360
DA3
  0
DICTIONARY
  5
D94
330
C41
100
AcDbDictionary
280
     1
281
     1
  3
ACAD_XREC_ROUNDTRIP
360
D95
  0
DICTIONARY
  5
D98
330
C43
100
AcDbDictionary
280
     1
281
     1
  3
ACAD_XREC_ROUNDTRIP
360
D99
  0
DICTIONARY
  5
DB2
330
C50
100
AcDbDictionary
280
     1
281
     1
  3
ACAD_XREC_ROUNDTRIP
360
DB3
  0
DICTIONARY
  5
DA0
330
C47
100
AcDbDictionary
280
     1
281
     1
  3
ACAD_XREC_ROUNDTRIP
360
DA1
  0
DICTIONARY
  5
D84
330
C39
100
AcDbDictionary
280
     1
281
     1
  3
ACAD_XREC_ROUNDTRIP
360
D85
  0
DICTIONARY
  5
D86
330
C3A
100
AcDbDictionary
280
     1
281
     1
  3
ACAD_XREC_ROUNDTRIP
360
D87
  0
DICTIONARY
  5
D88
330
C3B
100
AcDbDictionary
280
     1
281
     1
  3
ACAD_XREC_ROUNDTRIP
360
D89
  0
DICTIONARY
  5
D8A
330
C3C
100
AcDbDictionary
280
     1
281
     1
  3
ACAD_XREC_ROUNDTRIP
360
D8B
  0
DICTIONARY
  5
D92
330
C40
100
AcDbDictionary
280
     1
281
     1
  3
ACAD_XREC_ROUNDTRIP
360
D93
  0
DICTIONARY
  5
DAE
330
C4E
100
AcDbDictionary
280
     1
281
     1
  3
ACAD_XREC_ROUNDTRIP
360
DAF
  0
DICTIONARY
  5
D9E
330
C46
100
AcDbDictionary
280
     1
281
     1
  3
ACAD_XREC_ROUNDTRIP
360
D9F
  0
DICTIONARY
  5
DB0
330
C4F
100
AcDbDictionary
280
     1
281
     1
  3
ACAD_XREC_ROUNDTRIP
360
DB1
  0
DICTIONARY
  5
D96
330
C42
100
AcDbDictionary
280
     1
281
     1
  3
ACAD_XREC_ROUNDTRIP
360
D97
  0
DICTIONARY
  5
DAC
330
C4D
100
AcDbDictionary
280
     1
281
     1
  3
ACAD_XREC_ROUNDTRIP
360
DAD
  0
DICTIONARY
  5
DAA
330
C4C
100
AcDbDictionary
280
     1
281
     1
  3
ACAD_XREC_ROUNDTRIP
360
DAB
  0
DICTIONARY
  5
DA4
330
C49
100
AcDbDictionary
280
     1
281
     1
  3
ACAD_XREC_ROUNDTRIP
360
DA5
  0
DICTIONARY
  5
DA6
330
C4A
100
AcDbDictionary
280
     1
281
     1
  3
ACAD_XREC_ROUNDTRIP
360
DA7
  0
DICTIONARY
  5
D9C
330
C45
100
AcDbDictionary
280
     1
281
     1
  3
ACAD_XREC_ROUNDTRIP
360
D9D
  0
DICTIONARY
  5
D90
330
C3F
100
AcDbDictionary
280
     1
281
     1
  3
ACAD_XREC_ROUNDTRIP
360
D91
  0
DICTIONARY
  5
DA8
330
C4B
100
AcDbDictionary
280
     1
281
     1
  3
ACAD_XREC_ROUNDTRIP
360
DA9
  0
XRECORD
  5
D75
102
{ACAD_REACTORS
330
D7B
102
}
330
D7B
100
AcDbXrecord
280
     1
  1
AcDb_Thumbnail_Schema
102
{ATTRRECORD
341
D76
  2
AcDbDs::TreatedAsObjectData
280
     1
291
     1
102
ATTRRECORD}
102
{ATTRRECORD
341
D77
  2
AcDbDs::Legacy
280
     1
291
     1
102
ATTRRECORD}
  2
AcDbDs::ID
280
    10
 91
        8
102
{ATTRRECORD
341
D78
  2
AcDs:Indexable
280
     1
291
     1
102
ATTRRECORD}
102
{ATTRRECORD
341
D79
  2
AcDbDs::HandleAttribute
280
     7
282
     1
102
ATTRRECORD}
  2
Thumbnail_Data
280
    15
 91
        0
  0
XRECORD
  5
D76
102
{ACAD_REACTORS
330
D7B
102
}
330
D7B
100
AcDbXrecord
280
     1
  1
AcDbDs::TreatedAsObjectDataSchema
  2
AcDbDs::TreatedAsObjectData
280
     1
 91
        0
  0
XRECORD
  5
D77
102
{ACAD_REACTORS
330
D7B
102
}
330
D7B
100
AcDbXrecord
280
     1
  1
AcDbDs::LegacySchema
  2
AcDbDs::Legacy
280
     1
 91
        0
  0
XRECORD
  5
D78
102
{ACAD_REACTORS
330
D7B
102
}
330
D7B
100
AcDbXrecord
280
     1
  1
AcDbDs::IndexedPropertySchema
  2
AcDs:Indexable
280
     1
 91
        0
  0
XRECORD
  5
D79
102
{ACAD_REACTORS
330
D7B
102
}
330
D7B
100
AcDbXrecord
280
     1
  1
AcDbDs::HandleAttributeSchema
  2
AcDbDs::HandleAttribute
280
     7
 91
        1
284
     1
  0
XRECORD
  5
DB9
102
{ACAD_REACTORS
330
D5B
102
}
330
D5B
100
AcDbXrecord
280
     1
102
DISPLAYNAME
  1
Imperial24
102
FLAGS
 90
        0
  0
XRECORD
  5
D80
102
{ACAD_REACTORS
330
D7F
102
}
330
D7F
100
AcDbXrecord
280
     1
102
SHADEPLOT
 70
     0
102
SHADEPLOTRESLEVEL
 70
     2
102
SHADEPLOTCUSTOMDPI
 70
   150
  0
XRECORD
  5
D7E
102
{ACAD_REACTORS
330
D7D
102
}
330
D7D
100
AcDbXrecord
280
     1
102
SHADEPLOT
 70
     0
102
SHADEPLOTRESLEVEL
 70
     2
102
SHADEPLOTCUSTOMDPI
 70
   300
  0
XRECORD
  5
D82
102
{ACAD_REACTORS
330
C29
102
}
330
C29
100
AcDbXrecord
280
     1
102
MATERIAL
148
0.0
149
0.0
149
0.0
 93
        0
 94
      127
282
     0
 72
     0
 77
     0
171
     0
175
     0
179
     0
273
     0
  0
XRECORD
  5
C2B
102
{ACAD_REACTORS
330
C29
102
}
330
C29
100
AcDbXrecord
280
     1
270
     1
271
     1
  0
XRECORD
  5
C2A
102
{ACAD_REACTORS
330
C29
102
}
330
C29
100
AcDbXrecord
280
     1
270
     1
271
     1
  0
XRECORD
  5
C2E
102
{ACAD_REACTORS
330
C29
102
}
330
C29
100
AcDbXrecord
280
     1
270
     1
271
     1
  0
XRECORD
  5
C2D
102
{ACAD_REACTORS
330
C29
102
}
330
C29
100
AcDbXrecord
280
     1
270
     1
271
     1
  0
XRECORD
  5
C2F
102
{ACAD_REACTORS
330
C29
102
}
330
C29
100
AcDbXrecord
280
     1
270
     1
271
     1
  0
XRECORD
  5
C2C
102
{ACAD_REACTORS
330
C29
102
}
330
C29
100
AcDbXrecord
280
     1
270
     1
271
     1
  0
XRECORD
  5
D81
102
{ACAD_REACTORS
330
C21
102
}
330
C21
100
AcDbXrecord
280
     1
102
MATERIAL
148
0.0
149
0.0
149
0.0
 93
        0
 94
      127
282
     0
 72
     0
 77
     0
171
     0
175
     0
179
     0
273
     0
  0
XRECORD
  5
C23
102
{ACAD_REACTORS
330
C21
102
}
330
C21
100
AcDbXrecord
280
     1
270
     1
271
     1
  0
XRECORD
  5
C22
102
{ACAD_REACTORS
330
C21
102
}
330
C21
100
AcDbXrecord
280
     1
270
     1
271
     1
  0
XRECORD
  5
C26
102
{ACAD_REACTORS
330
C21
102
}
330
C21
100
AcDbXrecord
280
     1
270
     1
271
     1
  0
XRECORD
  5
C25
102
{ACAD_REACTORS
330
C21
102
}
330
C21
100
AcDbXrecord
280
     1
270
     1
271
     1
  0
XRECORD
  5
C27
102
{ACAD_REACTORS
330
C21
102
}
330
C21
100
AcDbXrecord
280
     1
270
     1
271
     1
  0
XRECORD
  5
C24
102
{ACAD_REACTORS
330
C21
102
}
330
C21
100
AcDbXrecord
280
     1
270
     1
271
     1
  0
XRECORD
  5
D83
102
{ACAD_REACTORS
330
C31
102
}
330
C31
100
AcDbXrecord
280
     1
102
MATERIAL
148
0.0
149
0.0
149
0.0
 93
        0
 94
      127
282
     0
 72
     0
 77
     0
171
     0
175
     0
179
     0
273
     0
  0
XRECORD
  5
C33
102
{ACAD_REACTORS
330
C31
102
}
330
C31
100
AcDbXrecord
280
     1
270
     1
271
     1
  0
XRECORD
  5
C32
102
{ACAD_REACTORS
330
C31
102
}
330
C31
100
AcDbXrecord
280
     1
270
     1
271
     1
  0
XRECORD
  5
C36
102
{ACAD_REACTORS
330
C31
102
}
330
C31
100
AcDbXrecord
280
     1
270
     1
271
     1
  0
XRECORD
  5
C35
102
{ACAD_REACTORS
330
C31
102
}
330
C31
100
AcDbXrecord
280
     1
270
     1
271
     1
  0
XRECORD
  5
C37
102
{ACAD_REACTORS
330
C31
102
}
330
C31
100
AcDbXrecord
280
     1
270
     1
271
     1
  0
XRECORD
  5
C34
102
{ACAD_REACTORS
330
C31
102
}
330
C31
100
AcDbXrecord
280
     1
270
     1
271
     1
  0
XRECORD
  5
DB7
102
{ACAD_REACTORS
330
DB6
102
}
330
DB6
100
AcDbXrecord
280
     1
102
ACAD_ROUNDTRIP_2012_MLEADER_STYLE
298
     1
  0
XRECORD
  5
DB8
102
{ACAD_REACTORS
330
D59
102
}
330
D59
100
AcDbXrecord
280
     1
102
DISPLAYNAME
  1
Imperial24
102
FLAGS
 90
        0
  0
CELLSTYLEMAP
  5
D72
102
{ACAD_REACTORS
330
D71
102
}
330
D71
100
AcDbCellStyleMap
 90
        3
300
CELLSTYLE
  1
TABLEFORMAT_BEGIN
 90
        5
170
     1
 91
        0
 92
    32768
 62
   257
 93
        1
300
CONTENTFORMAT
  1
CONTENTFORMAT_BEGIN
 90
        0
 91
        0
 92
      512
 93
        0
300

 40
0.0
140
1.0
 94
        5
 62
     0
340
309
144
0.25
309
CONTENTFORMAT_END
171
     0
 94
        0
309
TABLEFORMAT_END
  1
CELLSTYLE_BEGIN
 90
        1
 91
        1
300
_TITLE
309
CELLSTYLE_END
300
CELLSTYLE
  1
TABLEFORMAT_BEGIN
 90
        5
170
     1
 91
        0
 92
        0
 62
   257
 93
        1
300
CONTENTFORMAT
  1
CONTENTFORMAT_BEGIN
 90
        0
 91
        0
 92
      512
 93
        0
300

 40
0.0
140
1.0
 94
        5
 62
     0
340
309
144
0.18
309
CONTENTFORMAT_END
171
     0
 94
        0
309
TABLEFORMAT_END
  1
CELLSTYLE_BEGIN
 90
        2
 91
        1
300
_HEADER
309
CELLSTYLE_END
300
CELLSTYLE
  1
TABLEFORMAT_BEGIN
 90
        5
170
     1
 91
        0
 92
        0
 62
   257
 93
        1
300
CONTENTFORMAT
  1
CONTENTFORMAT_BEGIN
 90
        0
 91
        0
 92
      512
 93
        0
300

 40
0.0
140
1.0
 94
        2
 62
     0
340
309
144
0.18
309
CONTENTFORMAT_END
171
     0
 94
        0
309
TABLEFORMAT_END
  1
CELLSTYLE_BEGIN
 90
        3
 91
        2
300
_DATA
309
CELLSTYLE_END
  0
XRECORD
  5
DB4
102
{ACAD_REACTORS
330
D71
102
}
330
D71
100
AcDbXrecord
280
     1
102
ACAD_ROUNDTRIP_PRE2007_TABLESTYLE
 90
      512
 91
        0
  1

 92
      512
 93
        0
  2

 94
      512
 95
        0
  3

  0
XRECORD
  5
D8F
102
{ACAD_REACTORS
330
D8E
102
}
330
D8E
100
AcDbXrecord
280
     1
102
RTVSPost2010Prop28
280
     1
102
RTVSPost2010PropOp28
 70
     1
102
RTVSPost2010Prop29
280
     1
102
RTVSPost2010PropOp29
 70
     1
102
RTVSPost2010Prop30
280
     0
102
RTVSPost2010PropOp30
 70
     1
102
RTVSPost2010Prop31
280
     0
102
RTVSPost2010PropOp31
 70
     1
102
RTVSPost2010Prop32
280
     0
102
RTVSPost2010PropOp32
 70
     1
102
RTVSPost2010Prop33
280
     0
102
RTVSPost2010PropOp33
 70
     1
102
RTVSPost2010Prop34
280
     0
102
RTVSPost2010PropOp34
 70
     1
102
RTVSPost2010Prop35
280
     0
102
RTVSPost2010PropOp35
 70
     1
102
RTVSPost2010Prop36
280
     0
102
RTVSPost2010PropOp36
 70
     1
102
RTVSPost2010Prop37
 90
       50
102
RTVSPost2010PropOp37
 70
     1
102
RTVSPost2010Prop38
140
0.0
102
RTVSPost2010PropOp38
 70
     1
102
RTVSPost2010Prop39
140
1.0
102
RTVSPost2010PropOp39
 70
     1
102
RTVSPost2010Prop40
 90
        0
102
RTVSPost2010PropOp40
 70
     1
102
RTVSPost2010Prop41ColorIndex
 90
       18
102
RTVSPost2010Prop41ColorRGB
 90
        0
102
RTVSPost2010PropOp41
 70
     1
102
RTVSPost2010Prop42
 90
       50
102
RTVSPost2010PropOp42
 70
     1
102
RTVSPost2010Prop43
 90
        3
102
RTVSPost2010PropOp43
 70
     1
102
RTVSPost2010Prop44ColorIndex
 90
        5
102
RTVSPost2010Prop44ColorRGB
 90
      255
102
RTVSPost2010PropOp44
 70
     1
102
RTVSPost2010Prop45
280
     0
102
RTVSPost2010PropOp45
 70
     1
102
RTVSPost2010Prop46
 90
       50
102
RTVSPost2010PropOp46
 70
     1
102
RTVSPost2010Prop47
 90
       50
102
RTVSPost2010PropOp47
 70
     1
102
RTVSPost2010Prop48
 90
       50
102
RTVSPost2010PropOp48
 70
     1
102
RTVSPost2010Prop49
280
     0
102
RTVSPost2010PropOp49
 70
     1
102
RTVSPost2010Prop50
 90
       50
102
RTVSPost2010PropOp50
 70
     1
102
RTVSPost2010Prop51ColorIndex
 90
      256
102
RTVSPost2010Prop51ColorRGB
 90
-16777216
102
RTVSPost2010PropOp51
 70
     0
102
RTVSPost2010Prop52
140
1.0
102
RTVSPost2010PropOp52
 70
     0
102
RTVSPost2010Prop53
 90
        2
102
RTVSPost2010PropOp53
 70
     1
102
RTVSPost2010Prop54
  1
strokes_ogs.tif
102
RTVSPost2010PropOp54
 70
     1
102
RTVSPost2010Prop55
280
     0
102
RTVSPost2010PropOp55
 70
     1
102
RTVSPost2010Prop56
140
1.0
102
RTVSPost2010PropOp56
 70
     1
102
RTVSPost2010Prop57
140
1.0
102
RTVSPost2010PropOp57
 70
     1
102
RTVSPropertyOp0
 70
     1
102
RTVSPropertyOp1
 70
     1
102
RTVSPropertyOp2
 70
     1
102
RTVSPropertyOp3
 70
     1
102
RTVSPropertyOp4
 70
     1
102
RTVSPropertyOp5
 70
     1
102
RTVSPropertyOp6
 70
     1
102
RTVSPropertyOp7
 70
     1
102
RTVSPropertyOp8
 70
     1
102
RTVSPropertyOp9
 70
     1
102
RTVSPropertyOp10
 70
     1
102
RTVSPropertyOp11
 70
     1
102
RTVSPropertyOp12
 70
     1
102
RTVSPropertyOp13
 70
     1
102
RTVSPropertyOp14
 70
     1
102
RTVSPropertyOp15
 70
     1
102
RTVSPropertyOp16
 70
     1
102
RTVSPropertyOp17
 70
     1
102
RTVSPropertyOp18
 70
     1
102
RTVSPropertyOp19
 70
     1
102
RTVSPropertyOp20
 70
     1
102
RTVSPropertyOp21
 70
     1
102
RTVSPropertyOp22
 70
     1
102
RTVSPropertyOp23
 70
     1
102
RTVSPropertyOp24
 70
     1
102
RTVSPropertyOp25
 70
     1
102
RTVSPropertyOp26
 70
     1
102
RTVSPropertyOp27
 70
     1
102
RTVSPropertyOp28
 70
     1
102
RTVSPropertyOp29
 70
     1
102
RTVSPropertyOp30
 70
     1
102
RTVSPropertyOp31
 70
     1
102
RTVSPropertyOp32
 70
     1
102
RTVSPropertyOp33
 70
     1
102
RTVSPropertyOp34
 70
     1
102
RTVSPropertyOp35
 70
     1
102
RTVSPropertyOp36
 70
     1
102
RTVSPropertyOp37
 70
     1
102
RTVSPropertyOp38
 70
     1
102
RTVSPropertyOp39
 70
     1
102
RTVSPropertyOp40
 70
     1
102
RTVSPropertyOp41
 70
     1
102
RTVSPropertyOp42
 70
     1
102
RTVSPropertyOp43
 70
     1
102
RTVSPropertyOp44
 70
     1
102
RTVSPropertyOp45
 70
     1
102
RTVSPropertyOp46
 70
     1
102
RTVSPropertyOp47
 70
     1
102
RTVSPropertyOp48
 70
     1
102
RTVSPropertyOp49
 70
     1
102
RTVSPropertyOp50
 70
     1
102
RTVSPropertyOp51
 70
     0
102
RTVSPropertyOp52
 70
     0
102
RTVSPropertyOp53
 70
     1
102
RTVSPropertyOp54
 70
     1
102
RTVSPropertyOp55
 70
     1
102
RTVSPropertyOp56
 70
     1
102
RTVSPropertyOp57
 70
     1
102
RTVSPropertyOp58
 70
     1
102
RTVSPropertyOp59
 70
     1
102
RTVSPropertyOp60
 70
     1
102
RTVSPropertyOp61
 70
     1
102
RTVSPropertyOp62
 70
     1
  0
XRECORD
  5
D8D
102
{ACAD_REACTORS
330
D8C
102
}
330
D8C
100
AcDbXrecord
280
     1
102
RTVSPost2010Prop28
280
     0
102
RTVSPost2010PropOp28
 70
     1
102
RTVSPost2010Prop29
280
     1
102
RTVSPost2010PropOp29
 70
     1
102
RTVSPost2010Prop30
280
     1
102
RTVSPost2010PropOp30
 70
     1
102
RTVSPost2010Prop31
280
     0
102
RTVSPost2010PropOp31
 70
     1
102
RTVSPost2010Prop32
280
     0
102
RTVSPost2010PropOp32
 70
     1
102
RTVSPost2010Prop33
280
     0
102
RTVSPost2010PropOp33
 70
     1
102
RTVSPost2010Prop34
280
     0
102
RTVSPost2010PropOp34
 70
     1
102
RTVSPost2010Prop35
280
     0
102
RTVSPost2010PropOp35
 70
     1
102
RTVSPost2010Prop36
280
     0
102
RTVSPost2010PropOp36
 70
     1
102
RTVSPost2010Prop37
 90
       50
102
RTVSPost2010PropOp37
 70
     1
102
RTVSPost2010Prop38
140
0.0
102
RTVSPost2010PropOp38
 70
     1
102
RTVSPost2010Prop39
140
1.0
102
RTVSPost2010PropOp39
 70
     1
102
RTVSPost2010Prop40
 90
        0
102
RTVSPost2010PropOp40
 70
     1
102
RTVSPost2010Prop41ColorIndex
 90
       18
102
RTVSPost2010Prop41ColorRGB
 90
        0
102
RTVSPost2010PropOp41
 70
     1
102
RTVSPost2010Prop42
 90
       50
102
RTVSPost2010PropOp42
 70
     1
102
RTVSPost2010Prop43
 90
        3
102
RTVSPost2010PropOp43
 70
     1
102
RTVSPost2010Prop44ColorIndex
 90
        5
102
RTVSPost2010Prop44ColorRGB
 90
      255
102
RTVSPost2010PropOp44
 70
     1
102
RTVSPost2010Prop45
280
     0
102
RTVSPost2010PropOp45
 70
     1
102
RTVSPost2010Prop46
 90
       50
102
RTVSPost2010PropOp46
 70
     1
102
RTVSPost2010Prop47
 90
       50
102
RTVSPost2010PropOp47
 70
     1
102
RTVSPost2010Prop48
 90
       50
102
RTVSPost2010PropOp48
 70
     1
102
RTVSPost2010Prop49
280
     0
102
RTVSPost2010PropOp49
 70
     1
102
RTVSPost2010Prop50
 90
       50
102
RTVSPost2010PropOp50
 70
     1
102
RTVSPost2010Prop51ColorIndex
 90
      256
102
RTVSPost2010Prop51ColorRGB
 90
-16777216
102
RTVSPost2010PropOp51
 70
     0
102
RTVSPost2010Prop52
140
1.0
102
RTVSPost2010PropOp52
 70
     0
102
RTVSPost2010Prop53
 90
        2
102
RTVSPost2010PropOp53
 70
     1
102
RTVSPost2010Prop54
  1
strokes_ogs.tif
102
RTVSPost2010PropOp54
 70
     1
102
RTVSPost2010Prop55
280
     0
102
RTVSPost2010PropOp55
 70
     1
102
RTVSPost2010Prop56
140
1.0
102
RTVSPost2010PropOp56
 70
     1
102
RTVSPost2010Prop57
140
1.0
102
RTVSPost2010PropOp57
 70
     1
102
RTVSPropertyOp0
 70
     1
102
RTVSPropertyOp1
 70
     1
102
RTVSPropertyOp2
 70
     1
102
RTVSPropertyOp3
 70
     1
102
RTVSPropertyOp4
 70
     1
102
RTVSPropertyOp5
 70
     1
102
RTVSPropertyOp6
 70
     1
102
RTVSPropertyOp7
 70
     1
102
RTVSPropertyOp8
 70
     1
102
RTVSPropertyOp9
 70
     1
102
RTVSPropertyOp10
 70
     1
102
RTVSPropertyOp11
 70
     1
102
RTVSPropertyOp12
 70
     1
102
RTVSPropertyOp13
 70
     1
102
RTVSPropertyOp14
 70
     1
102
RTVSPropertyOp15
 70
     1
102
RTVSPropertyOp16
 70
     1
102
RTVSPropertyOp17
 70
     1
102
RTVSPropertyOp18
 70
     1
102
RTVSPropertyOp19
 70
     1
102
RTVSPropertyOp20
 70
     1
102
RTVSPropertyOp21
 70
     1
102
RTVSPropertyOp22
 70
     1
102
RTVSPropertyOp23
 70
     1
102
RTVSPropertyOp24
 70
     1
102
RTVSPropertyOp25
 70
     1
102
RTVSPropertyOp26
 70
     1
102
RTVSPropertyOp27
 70
     1
102
RTVSPropertyOp28
 70
     1
102
RTVSPropertyOp29
 70
     1
102
RTVSPropertyOp30
 70
     1
102
RTVSPropertyOp31
 70
     1
102
RTVSPropertyOp32
 70
     1
102
RTVSPropertyOp33
 70
     1
102
RTVSPropertyOp34
 70
     1
102
RTVSPropertyOp35
 70
     1
102
RTVSPropertyOp36
 70
     1
102
RTVSPropertyOp37
 70
     1
102
RTVSPropertyOp38
 70
     1
102
RTVSPropertyOp39
 70
     1
102
RTVSPropertyOp40
 70
     1
102
RTVSPropertyOp41
 70
     1
102
RTVSPropertyOp42
 70
     1
102
RTVSPropertyOp43
 70
     1
102
RTVSPropertyOp44
 70
     1
102
RTVSPropertyOp45
 70
     1
102
RTVSPropertyOp46
 70
     1
102
RTVSPropertyOp47
 70
     1
102
RTVSPropertyOp48
 70
     1
102
RTVSPropertyOp49
 70
     1
102
RTVSPropertyOp50
 70
     1
102
RTVSPropertyOp51
 70
     0
102
RTVSPropertyOp52
 70
     0
102
RTVSPropertyOp53
 70
     1
102
RTVSPropertyOp54
 70
     1
102
RTVSPropertyOp55
 70
     1
102
RTVSPropertyOp56
 70
     1
102
RTVSPropertyOp57
 70
     1
102
RTVSPropertyOp58
 70
     1
102
RTVSPropertyOp59
 70
     1
102
RTVSPropertyOp60
 70
     1
102
RTVSPropertyOp61
 70
     1
102
RTVSPropertyOp62
 70
     1
  0
XRECORD
  5
D9B
102
{ACAD_REACTORS
330
D9A
102
}
330
D9A
100
AcDbXrecord
280
     1
102
RTVSPost2010Prop28
280
     0
102
RTVSPost2010PropOp28
 70
     1
102
RTVSPost2010Prop29
280
     1
102
RTVSPost2010PropOp29
 70
     1
102
RTVSPost2010Prop30
280
     1
102
RTVSPost2010PropOp30
 70
     1
102
RTVSPost2010Prop31
280
     0
102
RTVSPost2010PropOp31
 70
     1
102
RTVSPost2010Prop32
280
     0
102
RTVSPost2010PropOp32
 70
     1
102
RTVSPost2010Prop33
280
     0
102
RTVSPost2010PropOp33
 70
     1
102
RTVSPost2010Prop34
280
     0
102
RTVSPost2010PropOp34
 70
     1
102
RTVSPost2010Prop35
280
     0
102
RTVSPost2010PropOp35
 70
     1
102
RTVSPost2010Prop36
280
     0
102
RTVSPost2010PropOp36
 70
     1
102
RTVSPost2010Prop37
 90
       50
102
RTVSPost2010PropOp37
 70
     1
102
RTVSPost2010Prop38
140
0.0
102
RTVSPost2010PropOp38
 70
     1
102
RTVSPost2010Prop39
140
1.0
102
RTVSPost2010PropOp39
 70
     1
102
RTVSPost2010Prop40
 90
        0
102
RTVSPost2010PropOp40
 70
     1
102
RTVSPost2010Prop41ColorIndex
 90
       18
102
RTVSPost2010Prop41ColorRGB
 90
        0
102
RTVSPost2010PropOp41
 70
     1
102
RTVSPost2010Prop42
 90
       50
102
RTVSPost2010PropOp42
 70
     1
102
RTVSPost2010Prop43
 90
        3
102
RTVSPost2010PropOp43
 70
     1
102
RTVSPost2010Prop44ColorIndex
 90
        5
102
RTVSPost2010Prop44ColorRGB
 90
      255
102
RTVSPost2010PropOp44
 70
     1
102
RTVSPost2010Prop45
280
     0
102
RTVSPost2010PropOp45
 70
     1
102
RTVSPost2010Prop46
 90
       50
102
RTVSPost2010PropOp46
 70
     1
102
RTVSPost2010Prop47
 90
       50
102
RTVSPost2010PropOp47
 70
     1
102
RTVSPost2010Prop48
 90
       50
102
RTVSPost2010PropOp48
 70
     1
102
RTVSPost2010Prop49
280
     0
102
RTVSPost2010PropOp49
 70
     1
102
RTVSPost2010Prop50
 90
       50
102
RTVSPost2010PropOp50
 70
     1
102
RTVSPost2010Prop51ColorIndex
 90
      256
102
RTVSPost2010Prop51ColorRGB
 90
-16777216
102
RTVSPost2010PropOp51
 70
     0
102
RTVSPost2010Prop52
140
1.0
102
RTVSPost2010PropOp52
 70
     0
102
RTVSPost2010Prop53
 90
        2
102
RTVSPost2010PropOp53
 70
     1
102
RTVSPost2010Prop54
  1
strokes_ogs.tif
102
RTVSPost2010PropOp54
 70
     1
102
RTVSPost2010Prop55
280
     0
102
RTVSPost2010PropOp55
 70
     1
102
RTVSPost2010Prop56
140
1.0
102
RTVSPost2010PropOp56
 70
     1
102
RTVSPost2010Prop57
140
1.0
102
RTVSPost2010PropOp57
 70
     1
102
RTVSPropertyOp0
 70
     1
102
RTVSPropertyOp1
 70
     1
102
RTVSPropertyOp2
 70
     1
102
RTVSPropertyOp3
 70
     1
102
RTVSPropertyOp4
 70
     1
102
RTVSPropertyOp5
 70
     1
102
RTVSPropertyOp6
 70
     1
102
RTVSPropertyOp7
 70
     1
102
RTVSPropertyOp8
 70
     1
102
RTVSPropertyOp9
 70
     1
102
RTVSPropertyOp10
 70
     1
102
RTVSPropertyOp11
 70
     1
102
RTVSPropertyOp12
 70
     1
102
RTVSPropertyOp13
 70
     1
102
RTVSPropertyOp14
 70
     1
102
RTVSPropertyOp15
 70
     1
102
RTVSPropertyOp16
 70
     1
102
RTVSPropertyOp17
 70
     1
102
RTVSPropertyOp18
 70
     1
102
RTVSPropertyOp19
 70
     1
102
RTVSPropertyOp20
 70
     1
102
RTVSPropertyOp21
 70
     1
102
RTVSPropertyOp22
 70
     1
102
RTVSPropertyOp23
 70
     1
102
RTVSPropertyOp24
 70
     1
102
RTVSPropertyOp25
 70
     1
102
RTVSPropertyOp26
 70
     1
102
RTVSPropertyOp27
 70
     1
102
RTVSPropertyOp28
 70
     1
102
RTVSPropertyOp29
 70
     1
102
RTVSPropertyOp30
 70
     1
102
RTVSPropertyOp31
 70
     1
102
RTVSPropertyOp32
 70
     1
102
RTVSPropertyOp33
 70
     1
102
RTVSPropertyOp34
 70
     1
102
RTVSPropertyOp35
 70
     1
102
RTVSPropertyOp36
 70
     1
102
RTVSPropertyOp37
 70
     1
102
RTVSPropertyOp38
 70
     1
102
RTVSPropertyOp39
 70
     1
102
RTVSPropertyOp40
 70
     1
102
RTVSPropertyOp41
 70
     1
102
RTVSPropertyOp42
 70
     1
102
RTVSPropertyOp43
 70
     1
102
RTVSPropertyOp44
 70
     1
102
RTVSPropertyOp45
 70
     1
102
RTVSPropertyOp46
 70
     1
102
RTVSPropertyOp47
 70
     1
102
RTVSPropertyOp48
 70
     1
102
RTVSPropertyOp49
 70
     1
102
RTVSPropertyOp50
 70
     1
102
RTVSPropertyOp51
 70
     0
102
RTVSPropertyOp52
 70
     0
102
RTVSPropertyOp53
 70
     1
102
RTVSPropertyOp54
 70
     1
102
RTVSPropertyOp55
 70
     1
102
RTVSPropertyOp56
 70
     1
102
RTVSPropertyOp57
 70
     1
102
RTVSPropertyOp58
 70
     1
102
RTVSPropertyOp59
 70
     1
102
RTVSPropertyOp60
 70
     1
102
RTVSPropertyOp61
 70
     1
102
RTVSPropertyOp62
 70
     1
  0
XRECORD
  5
DA3
102
{ACAD_REACTORS
330
DA2
102
}
330
DA2
100
AcDbXrecord
280
     1
102
RTVSPost2010Prop28
280
     0
102
RTVSPost2010PropOp28
 70
     1
102
RTVSPost2010Prop29
280
     1
102
RTVSPost2010PropOp29
 70
     1
102
RTVSPost2010Prop30
280
     1
102
RTVSPost2010PropOp30
 70
     1
102
RTVSPost2010Prop31
280
     0
102
RTVSPost2010PropOp31
 70
     1
102
RTVSPost2010Prop32
280
     0
102
RTVSPost2010PropOp32
 70
     1
102
RTVSPost2010Prop33
280
     0
102
RTVSPost2010PropOp33
 70
     1
102
RTVSPost2010Prop34
280
     0
102
RTVSPost2010PropOp34
 70
     1
102
RTVSPost2010Prop35
280
     0
102
RTVSPost2010PropOp35
 70
     1
102
RTVSPost2010Prop36
280
     0
102
RTVSPost2010PropOp36
 70
     1
102
RTVSPost2010Prop37
 90
       50
102
RTVSPost2010PropOp37
 70
     1
102
RTVSPost2010Prop38
140
0.0
102
RTVSPost2010PropOp38
 70
     1
102
RTVSPost2010Prop39
140
1.0
102
RTVSPost2010PropOp39
 70
     1
102
RTVSPost2010Prop40
 90
        0
102
RTVSPost2010PropOp40
 70
     1
102
RTVSPost2010Prop41ColorIndex
 90
       18
102
RTVSPost2010Prop41ColorRGB
 90
        0
102
RTVSPost2010PropOp41
 70
     1
102
RTVSPost2010Prop42
 90
       50
102
RTVSPost2010PropOp42
 70
     1
102
RTVSPost2010Prop43
 90
        3
102
RTVSPost2010PropOp43
 70
     1
102
RTVSPost2010Prop44ColorIndex
 90
        5
102
RTVSPost2010Prop44ColorRGB
 90
      255
102
RTVSPost2010PropOp44
 70
     1
102
RTVSPost2010Prop45
280
     0
102
RTVSPost2010PropOp45
 70
     1
102
RTVSPost2010Prop46
 90
       50
102
RTVSPost2010PropOp46
 70
     1
102
RTVSPost2010Prop47
 90
       50
102
RTVSPost2010PropOp47
 70
     1
102
RTVSPost2010Prop48
 90
       50
102
RTVSPost2010PropOp48
 70
     1
102
RTVSPost2010Prop49
280
     0
102
RTVSPost2010PropOp49
 70
     1
102
RTVSPost2010Prop50
 90
       50
102
RTVSPost2010PropOp50
 70
     1
102
RTVSPost2010Prop51ColorIndex
 90
      256
102
RTVSPost2010Prop51ColorRGB
 90
-16777216
102
RTVSPost2010PropOp51
 70
     0
102
RTVSPost2010Prop52
140
1.0
102
RTVSPost2010PropOp52
 70
     0
102
RTVSPost2010Prop53
 90
        2
102
RTVSPost2010PropOp53
 70
     1
102
RTVSPost2010Prop54
  1
strokes_ogs.tif
102
RTVSPost2010PropOp54
 70
     1
102
RTVSPost2010Prop55
280
     0
102
RTVSPost2010PropOp55
 70
     1
102
RTVSPost2010Prop56
140
1.0
102
RTVSPost2010PropOp56
 70
     1
102
RTVSPost2010Prop57
140
1.0
102
RTVSPost2010PropOp57
 70
     1
102
RTVSPropertyOp0
 70
     1
102
RTVSPropertyOp1
 70
     1
102
RTVSPropertyOp2
 70
     1
102
RTVSPropertyOp3
 70
     1
102
RTVSPropertyOp4
 70
     1
102
RTVSPropertyOp5
 70
     1
102
RTVSPropertyOp6
 70
     1
102
RTVSPropertyOp7
 70
     1
102
RTVSPropertyOp8
 70
     1
102
RTVSPropertyOp9
 70
     1
102
RTVSPropertyOp10
 70
     1
102
RTVSPropertyOp11
 70
     1
102
RTVSPropertyOp12
 70
     1
102
RTVSPropertyOp13
 70
     1
102
RTVSPropertyOp14
 70
     1
102
RTVSPropertyOp15
 70
     1
102
RTVSPropertyOp16
 70
     1
102
RTVSPropertyOp17
 70
     1
102
RTVSPropertyOp18
 70
     1
102
RTVSPropertyOp19
 70
     1
102
RTVSPropertyOp20
 70
     1
102
RTVSPropertyOp21
 70
     1
102
RTVSPropertyOp22
 70
     1
102
RTVSPropertyOp23
 70
     1
102
RTVSPropertyOp24
 70
     1
102
RTVSPropertyOp25
 70
     1
102
RTVSPropertyOp26
 70
     1
102
RTVSPropertyOp27
 70
     1
102
RTVSPropertyOp28
 70
     1
102
RTVSPropertyOp29
 70
     1
102
RTVSPropertyOp30
 70
     1
102
RTVSPropertyOp31
 70
     1
102
RTVSPropertyOp32
 70
     1
102
RTVSPropertyOp33
 70
     1
102
RTVSPropertyOp34
 70
     1
102
RTVSPropertyOp35
 70
     1
102
RTVSPropertyOp36
 70
     1
102
RTVSPropertyOp37
 70
     1
102
RTVSPropertyOp38
 70
     1
102
RTVSPropertyOp39
 70
     1
102
RTVSPropertyOp40
 70
     1
102
RTVSPropertyOp41
 70
     1
102
RTVSPropertyOp42
 70
     1
102
RTVSPropertyOp43
 70
     1
102
RTVSPropertyOp44
 70
     1
102
RTVSPropertyOp45
 70
     1
102
RTVSPropertyOp46
 70
     1
102
RTVSPropertyOp47
 70
     1
102
RTVSPropertyOp48
 70
     1
102
RTVSPropertyOp49
 70
     1
102
RTVSPropertyOp50
 70
     1
102
RTVSPropertyOp51
 70
     0
102
RTVSPropertyOp52
 70
     0
102
RTVSPropertyOp53
 70
     1
102
RTVSPropertyOp54
 70
     1
102
RTVSPropertyOp55
 70
     1
102
RTVSPropertyOp56
 70
     1
102
RTVSPropertyOp57
 70
     1
102
RTVSPropertyOp58
 70
     1
102
RTVSPropertyOp59
 70
     1
102
RTVSPropertyOp60
 70
     1
102
RTVSPropertyOp61
 70
     1
102
RTVSPropertyOp62
 70
     1
  0
XRECORD
  5
D95
102
{ACAD_REACTORS
330
D94
102
}
330
D94
100
AcDbXrecord
280
     1
102
RTVSPost2010Prop28
280
     0
102
RTVSPost2010PropOp28
 70
     1
102
RTVSPost2010Prop29
280
     1
102
RTVSPost2010PropOp29
 70
     1
102
RTVSPost2010Prop30
280
     1
102
RTVSPost2010PropOp30
 70
     1
102
RTVSPost2010Prop31
280
     0
102
RTVSPost2010PropOp31
 70
     1
102
RTVSPost2010Prop32
280
     0
102
RTVSPost2010PropOp32
 70
     1
102
RTVSPost2010Prop33
280
     0
102
RTVSPost2010PropOp33
 70
     1
102
RTVSPost2010Prop34
280
     0
102
RTVSPost2010PropOp34
 70
     1
102
RTVSPost2010Prop35
280
     0
102
RTVSPost2010PropOp35
 70
     1
102
RTVSPost2010Prop36
280
     0
102
RTVSPost2010PropOp36
 70
     1
102
RTVSPost2010Prop37
 90
       50
102
RTVSPost2010PropOp37
 70
     1
102
RTVSPost2010Prop38
140
0.0
102
RTVSPost2010PropOp38
 70
     1
102
RTVSPost2010Prop39
140
1.0
102
RTVSPost2010PropOp39
 70
     1
102
RTVSPost2010Prop40
 90
        0
102
RTVSPost2010PropOp40
 70
     1
102
RTVSPost2010Prop41ColorIndex
 90
       18
102
RTVSPost2010Prop41ColorRGB
 90
        0
102
RTVSPost2010PropOp41
 70
     1
102
RTVSPost2010Prop42
 90
       50
102
RTVSPost2010PropOp42
 70
     1
102
RTVSPost2010Prop43
 90
        3
102
RTVSPost2010PropOp43
 70
     1
102
RTVSPost2010Prop44ColorIndex
 90
        5
102
RTVSPost2010Prop44ColorRGB
 90
      255
102
RTVSPost2010PropOp44
 70
     1
102
RTVSPost2010Prop45
280
     0
102
RTVSPost2010PropOp45
 70
     1
102
RTVSPost2010Prop46
 90
       50
102
RTVSPost2010PropOp46
 70
     1
102
RTVSPost2010Prop47
 90
       50
102
RTVSPost2010PropOp47
 70
     1
102
RTVSPost2010Prop48
 90
       50
102
RTVSPost2010PropOp48
 70
     1
102
RTVSPost2010Prop49
280
     0
102
RTVSPost2010PropOp49
 70
     1
102
RTVSPost2010Prop50
 90
       50
102
RTVSPost2010PropOp50
 70
     1
102
RTVSPost2010Prop51ColorIndex
 90
      256
102
RTVSPost2010Prop51ColorRGB
 90
-16777216
102
RTVSPost2010PropOp51
 70
     0
102
RTVSPost2010Prop52
140
1.0
102
RTVSPost2010PropOp52
 70
     0
102
RTVSPost2010Prop53
 90
        2
102
RTVSPost2010PropOp53
 70
     1
102
RTVSPost2010Prop54
  1
strokes_ogs.tif
102
RTVSPost2010PropOp54
 70
     1
102
RTVSPost2010Prop55
280
     0
102
RTVSPost2010PropOp55
 70
     1
102
RTVSPost2010Prop56
140
1.0
102
RTVSPost2010PropOp56
 70
     1
102
RTVSPost2010Prop57
140
1.0
102
RTVSPost2010PropOp57
 70
     1
102
RTVSPropertyOp0
 70
     1
102
RTVSPropertyOp1
 70
     1
102
RTVSPropertyOp2
 70
     1
102
RTVSPropertyOp3
 70
     1
102
RTVSPropertyOp4
 70
     1
102
RTVSPropertyOp5
 70
     1
102
RTVSPropertyOp6
 70
     1
102
RTVSPropertyOp7
 70
     1
102
RTVSPropertyOp8
 70
     1
102
RTVSPropertyOp9
 70
     1
102
RTVSPropertyOp10
 70
     1
102
RTVSPropertyOp11
 70
     1
102
RTVSPropertyOp12
 70
     1
102
RTVSPropertyOp13
 70
     1
102
RTVSPropertyOp14
 70
     1
102
RTVSPropertyOp15
 70
     1
102
RTVSPropertyOp16
 70
     1
102
RTVSPropertyOp17
 70
     1
102
RTVSPropertyOp18
 70
     1
102
RTVSPropertyOp19
 70
     1
102
RTVSPropertyOp20
 70
     1
102
RTVSPropertyOp21
 70
     1
102
RTVSPropertyOp22
 70
     1
102
RTVSPropertyOp23
 70
     1
102
RTVSPropertyOp24
 70
     1
102
RTVSPropertyOp25
 70
     1
102
RTVSPropertyOp26
 70
     1
102
RTVSPropertyOp27
 70
     1
102
RTVSPropertyOp28
 70
     1
102
RTVSPropertyOp29
 70
     1
102
RTVSPropertyOp30
 70
     1
102
RTVSPropertyOp31
 70
     1
102
RTVSPropertyOp32
 70
     1
102
RTVSPropertyOp33
 70
     1
102
RTVSPropertyOp34
 70
     1
102
RTVSPropertyOp35
 70
     1
102
RTVSPropertyOp36
 70
     1
102
RTVSPropertyOp37
 70
     1
102
RTVSPropertyOp38
 70
     1
102
RTVSPropertyOp39
 70
     1
102
RTVSPropertyOp40
 70
     1
102
RTVSPropertyOp41
 70
     1
102
RTVSPropertyOp42
 70
     1
102
RTVSPropertyOp43
 70
     1
102
RTVSPropertyOp44
 70
     1
102
RTVSPropertyOp45
 70
     1
102
RTVSPropertyOp46
 70
     1
102
RTVSPropertyOp47
 70
     1
102
RTVSPropertyOp48
 70
     1
102
RTVSPropertyOp49
 70
     1
102
RTVSPropertyOp50
 70
     1
102
RTVSPropertyOp51
 70
     0
102
RTVSPropertyOp52
 70
     0
102
RTVSPropertyOp53
 70
     1
102
RTVSPropertyOp54
 70
     1
102
RTVSPropertyOp55
 70
     1
102
RTVSPropertyOp56
 70
     1
102
RTVSPropertyOp57
 70
     1
102
RTVSPropertyOp58
 70
     1
102
RTVSPropertyOp59
 70
     1
102
RTVSPropertyOp60
 70
     1
102
RTVSPropertyOp61
 70
     1
102
RTVSPropertyOp62
 70
     1
  0
XRECORD
  5
D99
102
{ACAD_REACTORS
330
D98
102
}
330
D98
100
AcDbXrecord
280
     1
102
RTVSPost2010Prop28
280
     0
102
RTVSPost2010PropOp28
 70
     1
102
RTVSPost2010Prop29
280
     1
102
RTVSPost2010PropOp29
 70
     1
102
RTVSPost2010Prop30
280
     1
102
RTVSPost2010PropOp30
 70
     1
102
RTVSPost2010Prop31
280
     0
102
RTVSPost2010PropOp31
 70
     1
102
RTVSPost2010Prop32
280
     0
102
RTVSPost2010PropOp32
 70
     1
102
RTVSPost2010Prop33
280
     0
102
RTVSPost2010PropOp33
 70
     1
102
RTVSPost2010Prop34
280
     0
102
RTVSPost2010PropOp34
 70
     1
102
RTVSPost2010Prop35
280
     0
102
RTVSPost2010PropOp35
 70
     1
102
RTVSPost2010Prop36
280
     0
102
RTVSPost2010PropOp36
 70
     1
102
RTVSPost2010Prop37
 90
       50
102
RTVSPost2010PropOp37
 70
     1
102
RTVSPost2010Prop38
140
0.0
102
RTVSPost2010PropOp38
 70
     1
102
RTVSPost2010Prop39
140
1.0
102
RTVSPost2010PropOp39
 70
     1
102
RTVSPost2010Prop40
 90
        0
102
RTVSPost2010PropOp40
 70
     1
102
RTVSPost2010Prop41ColorIndex
 90
       18
102
RTVSPost2010Prop41ColorRGB
 90
        0
102
RTVSPost2010PropOp41
 70
     1
102
RTVSPost2010Prop42
 90
       50
102
RTVSPost2010PropOp42
 70
     1
102
RTVSPost2010Prop43
 90
        3
102
RTVSPost2010PropOp43
 70
     1
102
RTVSPost2010Prop44ColorIndex
 90
        5
102
RTVSPost2010Prop44ColorRGB
 90
      255
102
RTVSPost2010PropOp44
 70
     1
102
RTVSPost2010Prop45
280
     0
102
RTVSPost2010PropOp45
 70
     1
102
RTVSPost2010Prop46
 90
       50
102
RTVSPost2010PropOp46
 70
     1
102
RTVSPost2010Prop47
 90
       50
102
RTVSPost2010PropOp47
 70
     1
102
RTVSPost2010Prop48
 90
       50
102
RTVSPost2010PropOp48
 70
     1
102
RTVSPost2010Prop49
280
     0
102
RTVSPost2010PropOp49
 70
     1
102
RTVSPost2010Prop50
 90
       50
102
RTVSPost2010PropOp50
 70
     1
102
RTVSPost2010Prop51ColorIndex
 90
      256
102
RTVSPost2010Prop51ColorRGB
 90
-16777216
102
RTVSPost2010PropOp51
 70
     0
102
RTVSPost2010Prop52
140
1.0
102
RTVSPost2010PropOp52
 70
     0
102
RTVSPost2010Prop53
 90
        2
102
RTVSPost2010PropOp53
 70
     1
102
RTVSPost2010Prop54
  1
strokes_ogs.tif
102
RTVSPost2010PropOp54
 70
     1
102
RTVSPost2010Prop55
280
     0
102
RTVSPost2010PropOp55
 70
     1
102
RTVSPost2010Prop56
140
1.0
102
RTVSPost2010PropOp56
 70
     1
102
RTVSPost2010Prop57
140
1.0
102
RTVSPost2010PropOp57
 70
     1
102
RTVSPropertyOp0
 70
     1
102
RTVSPropertyOp1
 70
     1
102
RTVSPropertyOp2
 70
     1
102
RTVSPropertyOp3
 70
     1
102
RTVSPropertyOp4
 70
     1
102
RTVSPropertyOp5
 70
     1
102
RTVSPropertyOp6
 70
     1
102
RTVSPropertyOp7
 70
     1
102
RTVSPropertyOp8
 70
     1
102
RTVSPropertyOp9
 70
     1
102
RTVSPropertyOp10
 70
     1
102
RTVSPropertyOp11
 70
     1
102
RTVSPropertyOp12
 70
     1
102
RTVSPropertyOp13
 70
     1
102
RTVSPropertyOp14
 70
     1
102
RTVSPropertyOp15
 70
     1
102
RTVSPropertyOp16
 70
     1
102
RTVSPropertyOp17
 70
     1
102
RTVSPropertyOp18
 70
     1
102
RTVSPropertyOp19
 70
     1
102
RTVSPropertyOp20
 70
     1
102
RTVSPropertyOp21
 70
     1
102
RTVSPropertyOp22
 70
     1
102
RTVSPropertyOp23
 70
     1
102
RTVSPropertyOp24
 70
     1
102
RTVSPropertyOp25
 70
     1
102
RTVSPropertyOp26
 70
     1
102
RTVSPropertyOp27
 70
     1
102
RTVSPropertyOp28
 70
     1
102
RTVSPropertyOp29
 70
     1
102
RTVSPropertyOp30
 70
     1
102
RTVSPropertyOp31
 70
     1
102
RTVSPropertyOp32
 70
     1
102
RTVSPropertyOp33
 70
     1
102
RTVSPropertyOp34
 70
     1
102
RTVSPropertyOp35
 70
     1
102
RTVSPropertyOp36
 70
     1
102
RTVSPropertyOp37
 70
     1
102
RTVSPropertyOp38
 70
     1
102
RTVSPropertyOp39
 70
     1
102
RTVSPropertyOp40
 70
     1
102
RTVSPropertyOp41
 70
     1
102
RTVSPropertyOp42
 70
     1
102
RTVSPropertyOp43
 70
     1
102
RTVSPropertyOp44
 70
     1
102
RTVSPropertyOp45
 70
     1
102
RTVSPropertyOp46
 70
     1
102
RTVSPropertyOp47
 70
     1
102
RTVSPropertyOp48
 70
     1
102
RTVSPropertyOp49
 70
     1
102
RTVSPropertyOp50
 70
     1
102
RTVSPropertyOp51
 70
     0
102
RTVSPropertyOp52
 70
     0
102
RTVSPropertyOp53
 70
     1
102
RTVSPropertyOp54
 70
     1
102
RTVSPropertyOp55
 70
     1
102
RTVSPropertyOp56
 70
     1
102
RTVSPropertyOp57
 70
     1
102
RTVSPropertyOp58
 70
     1
102
RTVSPropertyOp59
 70
     1
102
RTVSPropertyOp60
 70
     1
102
RTVSPropertyOp61
 70
     1
102
RTVSPropertyOp62
 70
     1
  0
XRECORD
  5
DB3
102
{ACAD_REACTORS
330
DB2
102
}
330
DB2
100
AcDbXrecord
280
     1
102
RTVSPost2010Prop28
280
     0
102
RTVSPost2010PropOp28
 70
     0
102
RTVSPost2010Prop29
280
     1
102
RTVSPost2010PropOp29
 70
     0
102
RTVSPost2010Prop30
280
     1
102
RTVSPost2010PropOp30
 70
     0
102
RTVSPost2010Prop31
280
     0
102
RTVSPost2010PropOp31
 70
     0
102
RTVSPost2010Prop32
280
     0
102
RTVSPost2010PropOp32
 70
     0
102
RTVSPost2010Prop33
280
     0
102
RTVSPost2010PropOp33
 70
     0
102
RTVSPost2010Prop34
280
     0
102
RTVSPost2010PropOp34
 70
     0
102
RTVSPost2010Prop35
280
     0
102
RTVSPost2010PropOp35
 70
     0
102
RTVSPost2010Prop36
280
     0
102
RTVSPost2010PropOp36
 70
     0
102
RTVSPost2010Prop37
 90
       50
102
RTVSPost2010PropOp37
 70
     0
102
RTVSPost2010Prop38
140
0.0
102
RTVSPost2010PropOp38
 70
     0
102
RTVSPost2010Prop39
140
1.0
102
RTVSPost2010PropOp39
 70
     0
102
RTVSPost2010Prop40
 90
        0
102
RTVSPost2010PropOp40
 70
     0
102
RTVSPost2010Prop41ColorIndex
 90
       18
102
RTVSPost2010Prop41ColorRGB
 90
        0
102
RTVSPost2010PropOp41
 70
     0
102
RTVSPost2010Prop42
 90
       50
102
RTVSPost2010PropOp42
 70
     0
102
RTVSPost2010Prop43
 90
        3
102
RTVSPost2010PropOp43
 70
     0
102
RTVSPost2010Prop44ColorIndex
 90
        5
102
RTVSPost2010Prop44ColorRGB
 90
      255
102
RTVSPost2010PropOp44
 70
     0
102
RTVSPost2010Prop45
280
     0
102
RTVSPost2010PropOp45
 70
     0
102
RTVSPost2010Prop46
 90
       50
102
RTVSPost2010PropOp46
 70
     0
102
RTVSPost2010Prop47
 90
       50
102
RTVSPost2010PropOp47
 70
     0
102
RTVSPost2010Prop48
 90
       50
102
RTVSPost2010PropOp48
 70
     0
102
RTVSPost2010Prop49
280
     0
102
RTVSPost2010PropOp49
 70
     0
102
RTVSPost2010Prop50
 90
       50
102
RTVSPost2010PropOp50
 70
     0
102
RTVSPost2010Prop51ColorIndex
 90
      256
102
RTVSPost2010Prop51ColorRGB
 90
-16777216
102
RTVSPost2010PropOp51
 70
     0
102
RTVSPost2010Prop52
140
1.0
102
RTVSPost2010PropOp52
 70
     0
102
RTVSPost2010Prop53
 90
        2
102
RTVSPost2010PropOp53
 70
     0
102
RTVSPost2010Prop54
  1
strokes_ogs.tif
102
RTVSPost2010PropOp54
 70
     0
102
RTVSPost2010Prop55
280
     0
102
RTVSPost2010PropOp55
 70
     0
102
RTVSPost2010Prop56
140
1.0
102
RTVSPost2010PropOp56
 70
     0
102
RTVSPost2010Prop57
140
1.0
102
RTVSPost2010PropOp57
 70
     0
102
RTVSPropertyOp0
 70
     0
102
RTVSPropertyOp1
 70
     0
102
RTVSPropertyOp2
 70
     0
102
RTVSPropertyOp3
 70
     0
102
RTVSPropertyOp4
 70
     0
102
RTVSPropertyOp5
 70
     0
102
RTVSPropertyOp6
 70
     0
102
RTVSPropertyOp7
 70
     0
102
RTVSPropertyOp8
 70
     0
102
RTVSPropertyOp9
 70
     0
102
RTVSPropertyOp10
 70
     0
102
RTVSPropertyOp11
 70
     0
102
RTVSPropertyOp12
 70
     0
102
RTVSPropertyOp13
 70
     0
102
RTVSPropertyOp14
 70
     2
102
RTVSPropertyOp15
 70
     0
102
RTVSPropertyOp16
 70
     0
102
RTVSPropertyOp17
 70
     0
102
RTVSPropertyOp18
 70
     0
102
RTVSPropertyOp19
 70
     0
102
RTVSPropertyOp20
 70
     0
102
RTVSPropertyOp21
 70
     0
102
RTVSPropertyOp22
 70
     0
102
RTVSPropertyOp23
 70
     0
102
RTVSPropertyOp24
 70
     0
102
RTVSPropertyOp25
 70
     0
102
RTVSPropertyOp26
 70
     0
102
RTVSPropertyOp27
 70
     0
102
RTVSPropertyOp28
 70
     0
102
RTVSPropertyOp29
 70
     0
102
RTVSPropertyOp30
 70
     0
102
RTVSPropertyOp31
 70
     0
102
RTVSPropertyOp32
 70
     0
102
RTVSPropertyOp33
 70
     0
102
RTVSPropertyOp34
 70
     0
102
RTVSPropertyOp35
 70
     0
102
RTVSPropertyOp36
 70
     0
102
RTVSPropertyOp37
 70
     0
102
RTVSPropertyOp38
 70
     0
102
RTVSPropertyOp39
 70
     0
102
RTVSPropertyOp40
 70
     0
102
RTVSPropertyOp41
 70
     0
102
RTVSPropertyOp42
 70
     0
102
RTVSPropertyOp43
 70
     0
102
RTVSPropertyOp44
 70
     0
102
RTVSPropertyOp45
 70
     0
102
RTVSPropertyOp46
 70
     0
102
RTVSPropertyOp47
 70
     0
102
RTVSPropertyOp48
 70
     0
102
RTVSPropertyOp49
 70
     0
102
RTVSPropertyOp50
 70
     0
102
RTVSPropertyOp51
 70
     0
102
RTVSPropertyOp52
 70
     0
102
RTVSPropertyOp53
 70
     0
102
RTVSPropertyOp54
 70
     0
102
RTVSPropertyOp55
 70
     0
102
RTVSPropertyOp56
 70
     0
102
RTVSPropertyOp57
 70
     0
102
RTVSPropertyOp58
 70
     1
102
RTVSPropertyOp59
 70
     1
102
RTVSPropertyOp60
 70
     1
102
RTVSPropertyOp61
 70
     1
102
RTVSPropertyOp62
 70
     1
  0
XRECORD
  5
DA1
102
{ACAD_REACTORS
330
DA0
102
}
330
DA0
100
AcDbXrecord
280
     1
102
RTVSPost2010Prop28
280
     0
102
RTVSPost2010PropOp28
 70
     1
102
RTVSPost2010Prop29
280
     1
102
RTVSPost2010PropOp29
 70
     1
102
RTVSPost2010Prop30
280
     1
102
RTVSPost2010PropOp30
 70
     1
102
RTVSPost2010Prop31
280
     0
102
RTVSPost2010PropOp31
 70
     1
102
RTVSPost2010Prop32
280
     0
102
RTVSPost2010PropOp32
 70
     1
102
RTVSPost2010Prop33
280
     0
102
RTVSPost2010PropOp33
 70
     1
102
RTVSPost2010Prop34
280
     0
102
RTVSPost2010PropOp34
 70
     1
102
RTVSPost2010Prop35
280
     0
102
RTVSPost2010PropOp35
 70
     1
102
RTVSPost2010Prop36
280
     0
102
RTVSPost2010PropOp36
 70
     1
102
RTVSPost2010Prop37
 90
       50
102
RTVSPost2010PropOp37
 70
     1
102
RTVSPost2010Prop38
140
0.0
102
RTVSPost2010PropOp38
 70
     1
102
RTVSPost2010Prop39
140
1.0
102
RTVSPost2010PropOp39
 70
     1
102
RTVSPost2010Prop40
 90
        0
102
RTVSPost2010PropOp40
 70
     1
102
RTVSPost2010Prop41ColorIndex
 90
       18
102
RTVSPost2010Prop41ColorRGB
 90
        0
102
RTVSPost2010PropOp41
 70
     1
102
RTVSPost2010Prop42
 90
       50
102
RTVSPost2010PropOp42
 70
     1
102
RTVSPost2010Prop43
 90
        3
102
RTVSPost2010PropOp43
 70
     1
102
RTVSPost2010Prop44ColorIndex
 90
        5
102
RTVSPost2010Prop44ColorRGB
 90
      255
102
RTVSPost2010PropOp44
 70
     1
102
RTVSPost2010Prop45
280
     0
102
RTVSPost2010PropOp45
 70
     1
102
RTVSPost2010Prop46
 90
       50
102
RTVSPost2010PropOp46
 70
     1
102
RTVSPost2010Prop47
 90
       50
102
RTVSPost2010PropOp47
 70
     1
102
RTVSPost2010Prop48
 90
       50
102
RTVSPost2010PropOp48
 70
     1
102
RTVSPost2010Prop49
280
     0
102
RTVSPost2010PropOp49
 70
     1
102
RTVSPost2010Prop50
 90
       50
102
RTVSPost2010PropOp50
 70
     1
102
RTVSPost2010Prop51ColorIndex
 90
      256
102
RTVSPost2010Prop51ColorRGB
 90
-16777216
102
RTVSPost2010PropOp51
 70
     0
102
RTVSPost2010Prop52
140
1.0
102
RTVSPost2010PropOp52
 70
     0
102
RTVSPost2010Prop53
 90
        2
102
RTVSPost2010PropOp53
 70
     1
102
RTVSPost2010Prop54
  1
strokes_ogs.tif
102
RTVSPost2010PropOp54
 70
     1
102
RTVSPost2010Prop55
280
     0
102
RTVSPost2010PropOp55
 70
     1
102
RTVSPost2010Prop56
140
1.0
102
RTVSPost2010PropOp56
 70
     1
102
RTVSPost2010Prop57
140
1.0
102
RTVSPost2010PropOp57
 70
     1
102
RTVSPropertyOp0
 70
     1
102
RTVSPropertyOp1
 70
     1
102
RTVSPropertyOp2
 70
     1
102
RTVSPropertyOp3
 70
     1
102
RTVSPropertyOp4
 70
     1
102
RTVSPropertyOp5
 70
     1
102
RTVSPropertyOp6
 70
     1
102
RTVSPropertyOp7
 70
     1
102
RTVSPropertyOp8
 70
     1
102
RTVSPropertyOp9
 70
     1
102
RTVSPropertyOp10
 70
     1
102
RTVSPropertyOp11
 70
     1
102
RTVSPropertyOp12
 70
     1
102
RTVSPropertyOp13
 70
     1
102
RTVSPropertyOp14
 70
     1
102
RTVSPropertyOp15
 70
     1
102
RTVSPropertyOp16
 70
     1
102
RTVSPropertyOp17
 70
     1
102
RTVSPropertyOp18
 70
     1
102
RTVSPropertyOp19
 70
     1
102
RTVSPropertyOp20
 70
     1
102
RTVSPropertyOp21
 70
     1
102
RTVSPropertyOp22
 70
     1
102
RTVSPropertyOp23
 70
     1
102
RTVSPropertyOp24
 70
     1
102
RTVSPropertyOp25
 70
     1
102
RTVSPropertyOp26
 70
     1
102
RTVSPropertyOp27
 70
     1
102
RTVSPropertyOp28
 70
     1
102
RTVSPropertyOp29
 70
     1
102
RTVSPropertyOp30
 70
     1
102
RTVSPropertyOp31
 70
     1
102
RTVSPropertyOp32
 70
     1
102
RTVSPropertyOp33
 70
     1
102
RTVSPropertyOp34
 70
     1
102
RTVSPropertyOp35
 70
     1
102
RTVSPropertyOp36
 70
     1
102
RTVSPropertyOp37
 70
     1
102
RTVSPropertyOp38
 70
     1
102
RTVSPropertyOp39
 70
     1
102
RTVSPropertyOp40
 70
     1
102
RTVSPropertyOp41
 70
     1
102
RTVSPropertyOp42
 70
     1
102
RTVSPropertyOp43
 70
     1
102
RTVSPropertyOp44
 70
     1
102
RTVSPropertyOp45
 70
     1
102
RTVSPropertyOp46
 70
     1
102
RTVSPropertyOp47
 70
     1
102
RTVSPropertyOp48
 70
     1
102
RTVSPropertyOp49
 70
     1
102
RTVSPropertyOp50
 70
     1
102
RTVSPropertyOp51
 70
     0
102
RTVSPropertyOp52
 70
     0
102
RTVSPropertyOp53
 70
     1
102
RTVSPropertyOp54
 70
     1
102
RTVSPropertyOp55
 70
     1
102
RTVSPropertyOp56
 70
     1
102
RTVSPropertyOp57
 70
     1
102
RTVSPropertyOp58
 70
     1
102
RTVSPropertyOp59
 70
     1
102
RTVSPropertyOp60
 70
     1
102
RTVSPropertyOp61
 70
     1
102
RTVSPropertyOp62
 70
     1
  0
XRECORD
  5
D85
102
{ACAD_REACTORS
330
D84
102
}
330
D84
100
AcDbXrecord
280
     1
102
RTVSPost2010Prop28
280
     0
102
RTVSPost2010PropOp28
 70
     1
102
RTVSPost2010Prop29
280
     1
102
RTVSPost2010PropOp29
 70
     1
102
RTVSPost2010Prop30
280
     1
102
RTVSPost2010PropOp30
 70
     1
102
RTVSPost2010Prop31
280
     0
102
RTVSPost2010PropOp31
 70
     1
102
RTVSPost2010Prop32
280
     0
102
RTVSPost2010PropOp32
 70
     1
102
RTVSPost2010Prop33
280
     0
102
RTVSPost2010PropOp33
 70
     1
102
RTVSPost2010Prop34
280
     0
102
RTVSPost2010PropOp34
 70
     1
102
RTVSPost2010Prop35
280
     0
102
RTVSPost2010PropOp35
 70
     1
102
RTVSPost2010Prop36
280
     0
102
RTVSPost2010PropOp36
 70
     1
102
RTVSPost2010Prop37
 90
       50
102
RTVSPost2010PropOp37
 70
     1
102
RTVSPost2010Prop38
140
0.0
102
RTVSPost2010PropOp38
 70
     1
102
RTVSPost2010Prop39
140
1.0
102
RTVSPost2010PropOp39
 70
     1
102
RTVSPost2010Prop40
 90
        0
102
RTVSPost2010PropOp40
 70
     1
102
RTVSPost2010Prop41ColorIndex
 90
       18
102
RTVSPost2010Prop41ColorRGB
 90
        0
102
RTVSPost2010PropOp41
 70
     1
102
RTVSPost2010Prop42
 90
       50
102
RTVSPost2010PropOp42
 70
     1
102
RTVSPost2010Prop43
 90
        3
102
RTVSPost2010PropOp43
 70
     1
102
RTVSPost2010Prop44ColorIndex
 90
        5
102
RTVSPost2010Prop44ColorRGB
 90
      255
102
RTVSPost2010PropOp44
 70
     1
102
RTVSPost2010Prop45
280
     0
102
RTVSPost2010PropOp45
 70
     1
102
RTVSPost2010Prop46
 90
       50
102
RTVSPost2010PropOp46
 70
     1
102
RTVSPost2010Prop47
 90
       50
102
RTVSPost2010PropOp47
 70
     1
102
RTVSPost2010Prop48
 90
       50
102
RTVSPost2010PropOp48
 70
     1
102
RTVSPost2010Prop49
280
     0
102
RTVSPost2010PropOp49
 70
     1
102
RTVSPost2010Prop50
 90
       50
102
RTVSPost2010PropOp50
 70
     1
102
RTVSPost2010Prop51ColorIndex
 90
      256
102
RTVSPost2010Prop51ColorRGB
 90
-16777216
102
RTVSPost2010PropOp51
 70
     0
102
RTVSPost2010Prop52
140
1.0
102
RTVSPost2010PropOp52
 70
     0
102
RTVSPost2010Prop53
 90
        2
102
RTVSPost2010PropOp53
 70
     1
102
RTVSPost2010Prop54
  1
strokes_ogs.tif
102
RTVSPost2010PropOp54
 70
     1
102
RTVSPost2010Prop55
280
     0
102
RTVSPost2010PropOp55
 70
     1
102
RTVSPost2010Prop56
140
1.0
102
RTVSPost2010PropOp56
 70
     1
102
RTVSPost2010Prop57
140
1.0
102
RTVSPost2010PropOp57
 70
     1
102
RTVSPropertyOp0
 70
     1
102
RTVSPropertyOp1
 70
     1
102
RTVSPropertyOp2
 70
     1
102
RTVSPropertyOp3
 70
     1
102
RTVSPropertyOp4
 70
     1
102
RTVSPropertyOp5
 70
     1
102
RTVSPropertyOp6
 70
     1
102
RTVSPropertyOp7
 70
     1
102
RTVSPropertyOp8
 70
     1
102
RTVSPropertyOp9
 70
     1
102
RTVSPropertyOp10
 70
     1
102
RTVSPropertyOp11
 70
     1
102
RTVSPropertyOp12
 70
     1
102
RTVSPropertyOp13
 70
     1
102
RTVSPropertyOp14
 70
     1
102
RTVSPropertyOp15
 70
     1
102
RTVSPropertyOp16
 70
     1
102
RTVSPropertyOp17
 70
     1
102
RTVSPropertyOp18
 70
     1
102
RTVSPropertyOp19
 70
     1
102
RTVSPropertyOp20
 70
     1
102
RTVSPropertyOp21
 70
     1
102
RTVSPropertyOp22
 70
     1
102
RTVSPropertyOp23
 70
     1
102
RTVSPropertyOp24
 70
     1
102
RTVSPropertyOp25
 70
     1
102
RTVSPropertyOp26
 70
     1
102
RTVSPropertyOp27
 70
     1
102
RTVSPropertyOp28
 70
     1
102
RTVSPropertyOp29
 70
     1
102
RTVSPropertyOp30
 70
     1
102
RTVSPropertyOp31
 70
     1
102
RTVSPropertyOp32
 70
     1
102
RTVSPropertyOp33
 70
     1
102
RTVSPropertyOp34
 70
     1
102
RTVSPropertyOp35
 70
     1
102
RTVSPropertyOp36
 70
     1
102
RTVSPropertyOp37
 70
     1
102
RTVSPropertyOp38
 70
     1
102
RTVSPropertyOp39
 70
     1
102
RTVSPropertyOp40
 70
     1
102
RTVSPropertyOp41
 70
     1
102
RTVSPropertyOp42
 70
     1
102
RTVSPropertyOp43
 70
     1
102
RTVSPropertyOp44
 70
     1
102
RTVSPropertyOp45
 70
     1
102
RTVSPropertyOp46
 70
     1
102
RTVSPropertyOp47
 70
     1
102
RTVSPropertyOp48
 70
     1
102
RTVSPropertyOp49
 70
     1
102
RTVSPropertyOp50
 70
     1
102
RTVSPropertyOp51
 70
     0
102
RTVSPropertyOp52
 70
     0
102
RTVSPropertyOp53
 70
     1
102
RTVSPropertyOp54
 70
     1
102
RTVSPropertyOp55
 70
     1
102
RTVSPropertyOp56
 70
     1
102
RTVSPropertyOp57
 70
     1
102
RTVSPropertyOp58
 70
     1
102
RTVSPropertyOp59
 70
     1
102
RTVSPropertyOp60
 70
     1
102
RTVSPropertyOp61
 70
     1
102
RTVSPropertyOp62
 70
     1
  0
XRECORD
  5
D87
102
{ACAD_REACTORS
330
D86
102
}
330
D86
100
AcDbXrecord
280
     1
102
RTVSPost2010Prop28
280
     0
102
RTVSPost2010PropOp28
 70
     1
102
RTVSPost2010Prop29
280
     1
102
RTVSPost2010PropOp29
 70
     1
102
RTVSPost2010Prop30
280
     1
102
RTVSPost2010PropOp30
 70
     1
102
RTVSPost2010Prop31
280
     0
102
RTVSPost2010PropOp31
 70
     1
102
RTVSPost2010Prop32
280
     0
102
RTVSPost2010PropOp32
 70
     1
102
RTVSPost2010Prop33
280
     0
102
RTVSPost2010PropOp33
 70
     1
102
RTVSPost2010Prop34
280
     0
102
RTVSPost2010PropOp34
 70
     1
102
RTVSPost2010Prop35
280
     0
102
RTVSPost2010PropOp35
 70
     1
102
RTVSPost2010Prop36
280
     0
102
RTVSPost2010PropOp36
 70
     1
102
RTVSPost2010Prop37
 90
       50
102
RTVSPost2010PropOp37
 70
     1
102
RTVSPost2010Prop38
140
0.0
102
RTVSPost2010PropOp38
 70
     1
102
RTVSPost2010Prop39
140
1.0
102
RTVSPost2010PropOp39
 70
     1
102
RTVSPost2010Prop40
 90
        0
102
RTVSPost2010PropOp40
 70
     1
102
RTVSPost2010Prop41ColorIndex
 90
       18
102
RTVSPost2010Prop41ColorRGB
 90
        0
102
RTVSPost2010PropOp41
 70
     1
102
RTVSPost2010Prop42
 90
       50
102
RTVSPost2010PropOp42
 70
     1
102
RTVSPost2010Prop43
 90
        3
102
RTVSPost2010PropOp43
 70
     1
102
RTVSPost2010Prop44ColorIndex
 90
        5
102
RTVSPost2010Prop44ColorRGB
 90
      255
102
RTVSPost2010PropOp44
 70
     1
102
RTVSPost2010Prop45
280
     0
102
RTVSPost2010PropOp45
 70
     1
102
RTVSPost2010Prop46
 90
       50
102
RTVSPost2010PropOp46
 70
     1
102
RTVSPost2010Prop47
 90
       50
102
RTVSPost2010PropOp47
 70
     1
102
RTVSPost2010Prop48
 90
       50
102
RTVSPost2010PropOp48
 70
     1
102
RTVSPost2010Prop49
280
     0
102
RTVSPost2010PropOp49
 70
     1
102
RTVSPost2010Prop50
 90
       50
102
RTVSPost2010PropOp50
 70
     1
102
RTVSPost2010Prop51ColorIndex
 90
      256
102
RTVSPost2010Prop51ColorRGB
 90
-16777216
102
RTVSPost2010PropOp51
 70
     0
102
RTVSPost2010Prop52
140
1.0
102
RTVSPost2010PropOp52
 70
     0
102
RTVSPost2010Prop53
 90
        2
102
RTVSPost2010PropOp53
 70
     1
102
RTVSPost2010Prop54
  1
strokes_ogs.tif
102
RTVSPost2010PropOp54
 70
     1
102
RTVSPost2010Prop55
280
     0
102
RTVSPost2010PropOp55
 70
     1
102
RTVSPost2010Prop56
140
1.0
102
RTVSPost2010PropOp56
 70
     1
102
RTVSPost2010Prop57
140
1.0
102
RTVSPost2010PropOp57
 70
     1
102
RTVSPropertyOp0
 70
     1
102
RTVSPropertyOp1
 70
     1
102
RTVSPropertyOp2
 70
     1
102
RTVSPropertyOp3
 70
     1
102
RTVSPropertyOp4
 70
     1
102
RTVSPropertyOp5
 70
     1
102
RTVSPropertyOp6
 70
     1
102
RTVSPropertyOp7
 70
     1
102
RTVSPropertyOp8
 70
     1
102
RTVSPropertyOp9
 70
     1
102
RTVSPropertyOp10
 70
     1
102
RTVSPropertyOp11
 70
     1
102
RTVSPropertyOp12
 70
     1
102
RTVSPropertyOp13
 70
     1
102
RTVSPropertyOp14
 70
     1
102
RTVSPropertyOp15
 70
     1
102
RTVSPropertyOp16
 70
     1
102
RTVSPropertyOp17
 70
     1
102
RTVSPropertyOp18
 70
     1
102
RTVSPropertyOp19
 70
     1
102
RTVSPropertyOp20
 70
     1
102
RTVSPropertyOp21
 70
     1
102
RTVSPropertyOp22
 70
     1
102
RTVSPropertyOp23
 70
     1
102
RTVSPropertyOp24
 70
     1
102
RTVSPropertyOp25
 70
     1
102
RTVSPropertyOp26
 70
     1
102
RTVSPropertyOp27
 70
     1
102
RTVSPropertyOp28
 70
     1
102
RTVSPropertyOp29
 70
     1
102
RTVSPropertyOp30
 70
     1
102
RTVSPropertyOp31
 70
     1
102
RTVSPropertyOp32
 70
     1
102
RTVSPropertyOp33
 70
     1
102
RTVSPropertyOp34
 70
     1
102
RTVSPropertyOp35
 70
     1
102
RTVSPropertyOp36
 70
     1
102
RTVSPropertyOp37
 70
     1
102
RTVSPropertyOp38
 70
     1
102
RTVSPropertyOp39
 70
     1
102
RTVSPropertyOp40
 70
     1
102
RTVSPropertyOp41
 70
     1
102
RTVSPropertyOp42
 70
     1
102
RTVSPropertyOp43
 70
     1
102
RTVSPropertyOp44
 70
     1
102
RTVSPropertyOp45
 70
     1
102
RTVSPropertyOp46
 70
     1
102
RTVSPropertyOp47
 70
     1
102
RTVSPropertyOp48
 70
     1
102
RTVSPropertyOp49
 70
     1
102
RTVSPropertyOp50
 70
     1
102
RTVSPropertyOp51
 70
     0
102
RTVSPropertyOp52
 70
     0
102
RTVSPropertyOp53
 70
     1
102
RTVSPropertyOp54
 70
     1
102
RTVSPropertyOp55
 70
     1
102
RTVSPropertyOp56
 70
     1
102
RTVSPropertyOp57
 70
     1
102
RTVSPropertyOp58
 70
     1
102
RTVSPropertyOp59
 70
     1
102
RTVSPropertyOp60
 70
     1
102
RTVSPropertyOp61
 70
     1
102
RTVSPropertyOp62
 70
     1
  0
XRECORD
  5
D89
102
{ACAD_REACTORS
330
D88
102
}
330
D88
100
AcDbXrecord
280
     1
102
RTVSPost2010Prop28
280
     0
102
RTVSPost2010PropOp28
 70
     1
102
RTVSPost2010Prop29
280
     1
102
RTVSPost2010PropOp29
 70
     1
102
RTVSPost2010Prop30
280
     1
102
RTVSPost2010PropOp30
 70
     1
102
RTVSPost2010Prop31
280
     0
102
RTVSPost2010PropOp31
 70
     1
102
RTVSPost2010Prop32
280
     0
102
RTVSPost2010PropOp32
 70
     1
102
RTVSPost2010Prop33
280
     0
102
RTVSPost2010PropOp33
 70
     1
102
RTVSPost2010Prop34
280
     0
102
RTVSPost2010PropOp34
 70
     1
102
RTVSPost2010Prop35
280
     0
102
RTVSPost2010PropOp35
 70
     1
102
RTVSPost2010Prop36
280
     0
102
RTVSPost2010PropOp36
 70
     1
102
RTVSPost2010Prop37
 90
       50
102
RTVSPost2010PropOp37
 70
     1
102
RTVSPost2010Prop38
140
0.0
102
RTVSPost2010PropOp38
 70
     1
102
RTVSPost2010Prop39
140
1.0
102
RTVSPost2010PropOp39
 70
     1
102
RTVSPost2010Prop40
 90
        0
102
RTVSPost2010PropOp40
 70
     1
102
RTVSPost2010Prop41ColorIndex
 90
       18
102
RTVSPost2010Prop41ColorRGB
 90
        0
102
RTVSPost2010PropOp41
 70
     1
102
RTVSPost2010Prop42
 90
       50
102
RTVSPost2010PropOp42
 70
     1
102
RTVSPost2010Prop43
 90
        3
102
RTVSPost2010PropOp43
 70
     1
102
RTVSPost2010Prop44ColorIndex
 90
        5
102
RTVSPost2010Prop44ColorRGB
 90
      255
102
RTVSPost2010PropOp44
 70
     1
102
RTVSPost2010Prop45
280
     0
102
RTVSPost2010PropOp45
 70
     1
102
RTVSPost2010Prop46
 90
       50
102
RTVSPost2010PropOp46
 70
     1
102
RTVSPost2010Prop47
 90
       50
102
RTVSPost2010PropOp47
 70
     1
102
RTVSPost2010Prop48
 90
       50
102
RTVSPost2010PropOp48
 70
     1
102
RTVSPost2010Prop49
280
     0
102
RTVSPost2010PropOp49
 70
     1
102
RTVSPost2010Prop50
 90
       50
102
RTVSPost2010PropOp50
 70
     1
102
RTVSPost2010Prop51ColorIndex
 90
      256
102
RTVSPost2010Prop51ColorRGB
 90
-16777216
102
RTVSPost2010PropOp51
 70
     0
102
RTVSPost2010Prop52
140
1.0
102
RTVSPost2010PropOp52
 70
     0
102
RTVSPost2010Prop53
 90
        2
102
RTVSPost2010PropOp53
 70
     1
102
RTVSPost2010Prop54
  1
strokes_ogs.tif
102
RTVSPost2010PropOp54
 70
     1
102
RTVSPost2010Prop55
280
     0
102
RTVSPost2010PropOp55
 70
     1
102
RTVSPost2010Prop56
140
1.0
102
RTVSPost2010PropOp56
 70
     1
102
RTVSPost2010Prop57
140
1.0
102
RTVSPost2010PropOp57
 70
     1
102
RTVSPropertyOp0
 70
     1
102
RTVSPropertyOp1
 70
     1
102
RTVSPropertyOp2
 70
     1
102
RTVSPropertyOp3
 70
     1
102
RTVSPropertyOp4
 70
     1
102
RTVSPropertyOp5
 70
     1
102
RTVSPropertyOp6
 70
     1
102
RTVSPropertyOp7
 70
     1
102
RTVSPropertyOp8
 70
     1
102
RTVSPropertyOp9
 70
     1
102
RTVSPropertyOp10
 70
     1
102
RTVSPropertyOp11
 70
     1
102
RTVSPropertyOp12
 70
     1
102
RTVSPropertyOp13
 70
     1
102
RTVSPropertyOp14
 70
     1
102
RTVSPropertyOp15
 70
     1
102
RTVSPropertyOp16
 70
     1
102
RTVSPropertyOp17
 70
     1
102
RTVSPropertyOp18
 70
     1
102
RTVSPropertyOp19
 70
     1
102
RTVSPropertyOp20
 70
     1
102
RTVSPropertyOp21
 70
     1
102
RTVSPropertyOp22
 70
     1
102
RTVSPropertyOp23
 70
     1
102
RTVSPropertyOp24
 70
     1
102
RTVSPropertyOp25
 70
     1
102
RTVSPropertyOp26
 70
     1
102
RTVSPropertyOp27
 70
     1
102
RTVSPropertyOp28
 70
     1
102
RTVSPropertyOp29
 70
     1
102
RTVSPropertyOp30
 70
     1
102
RTVSPropertyOp31
 70
     1
102
RTVSPropertyOp32
 70
     1
102
RTVSPropertyOp33
 70
     1
102
RTVSPropertyOp34
 70
     1
102
RTVSPropertyOp35
 70
     1
102
RTVSPropertyOp36
 70
     1
102
RTVSPropertyOp37
 70
     1
102
RTVSPropertyOp38
 70
     1
102
RTVSPropertyOp39
 70
     1
102
RTVSPropertyOp40
 70
     1
102
RTVSPropertyOp41
 70
     1
102
RTVSPropertyOp42
 70
     1
102
RTVSPropertyOp43
 70
     1
102
RTVSPropertyOp44
 70
     1
102
RTVSPropertyOp45
 70
     1
102
RTVSPropertyOp46
 70
     1
102
RTVSPropertyOp47
 70
     1
102
RTVSPropertyOp48
 70
     1
102
RTVSPropertyOp49
 70
     1
102
RTVSPropertyOp50
 70
     1
102
RTVSPropertyOp51
 70
     0
102
RTVSPropertyOp52
 70
     0
102
RTVSPropertyOp53
 70
     1
102
RTVSPropertyOp54
 70
     1
102
RTVSPropertyOp55
 70
     1
102
RTVSPropertyOp56
 70
     1
102
RTVSPropertyOp57
 70
     1
102
RTVSPropertyOp58
 70
     1
102
RTVSPropertyOp59
 70
     1
102
RTVSPropertyOp60
 70
     1
102
RTVSPropertyOp61
 70
     1
102
RTVSPropertyOp62
 70
     1
  0
XRECORD
  5
D8B
102
{ACAD_REACTORS
330
D8A
102
}
330
D8A
100
AcDbXrecord
280
     1
102
RTVSPost2010Prop28
280
     0
102
RTVSPost2010PropOp28
 70
     1
102
RTVSPost2010Prop29
280
     1
102
RTVSPost2010PropOp29
 70
     1
102
RTVSPost2010Prop30
280
     1
102
RTVSPost2010PropOp30
 70
     1
102
RTVSPost2010Prop31
280
     0
102
RTVSPost2010PropOp31
 70
     1
102
RTVSPost2010Prop32
280
     0
102
RTVSPost2010PropOp32
 70
     1
102
RTVSPost2010Prop33
280
     0
102
RTVSPost2010PropOp33
 70
     1
102
RTVSPost2010Prop34
280
     0
102
RTVSPost2010PropOp34
 70
     1
102
RTVSPost2010Prop35
280
     0
102
RTVSPost2010PropOp35
 70
     1
102
RTVSPost2010Prop36
280
     0
102
RTVSPost2010PropOp36
 70
     1
102
RTVSPost2010Prop37
 90
       50
102
RTVSPost2010PropOp37
 70
     1
102
RTVSPost2010Prop38
140
0.0
102
RTVSPost2010PropOp38
 70
     1
102
RTVSPost2010Prop39
140
1.0
102
RTVSPost2010PropOp39
 70
     1
102
RTVSPost2010Prop40
 90
        0
102
RTVSPost2010PropOp40
 70
     1
102
RTVSPost2010Prop41ColorIndex
 90
       18
102
RTVSPost2010Prop41ColorRGB
 90
        0
102
RTVSPost2010PropOp41
 70
     1
102
RTVSPost2010Prop42
 90
       50
102
RTVSPost2010PropOp42
 70
     1
102
RTVSPost2010Prop43
 90
        3
102
RTVSPost2010PropOp43
 70
     1
102
RTVSPost2010Prop44ColorIndex
 90
        5
102
RTVSPost2010Prop44ColorRGB
 90
      255
102
RTVSPost2010PropOp44
 70
     1
102
RTVSPost2010Prop45
280
     0
102
RTVSPost2010PropOp45
 70
     1
102
RTVSPost2010Prop46
 90
       50
102
RTVSPost2010PropOp46
 70
     1
102
RTVSPost2010Prop47
 90
       50
102
RTVSPost2010PropOp47
 70
     1
102
RTVSPost2010Prop48
 90
       50
102
RTVSPost2010PropOp48
 70
     1
102
RTVSPost2010Prop49
280
     0
102
RTVSPost2010PropOp49
 70
     1
102
RTVSPost2010Prop50
 90
       50
102
RTVSPost2010PropOp50
 70
     1
102
RTVSPost2010Prop51ColorIndex
 90
      256
102
RTVSPost2010Prop51ColorRGB
 90
-16777216
102
RTVSPost2010PropOp51
 70
     0
102
RTVSPost2010Prop52
140
1.0
102
RTVSPost2010PropOp52
 70
     0
102
RTVSPost2010Prop53
 90
        2
102
RTVSPost2010PropOp53
 70
     1
102
RTVSPost2010Prop54
  1
strokes_ogs.tif
102
RTVSPost2010PropOp54
 70
     1
102
RTVSPost2010Prop55
280
     0
102
RTVSPost2010PropOp55
 70
     1
102
RTVSPost2010Prop56
140
1.0
102
RTVSPost2010PropOp56
 70
     1
102
RTVSPost2010Prop57
140
1.0
102
RTVSPost2010PropOp57
 70
     1
102
RTVSPropertyOp0
 70
     1
102
RTVSPropertyOp1
 70
     1
102
RTVSPropertyOp2
 70
     1
102
RTVSPropertyOp3
 70
     1
102
RTVSPropertyOp4
 70
     1
102
RTVSPropertyOp5
 70
     1
102
RTVSPropertyOp6
 70
     1
102
RTVSPropertyOp7
 70
     1
102
RTVSPropertyOp8
 70
     1
102
RTVSPropertyOp9
 70
     1
102
RTVSPropertyOp10
 70
     1
102
RTVSPropertyOp11
 70
     1
102
RTVSPropertyOp12
 70
     1
102
RTVSPropertyOp13
 70
     1
102
RTVSPropertyOp14
 70
     1
102
RTVSPropertyOp15
 70
     1
102
RTVSPropertyOp16
 70
     1
102
RTVSPropertyOp17
 70
     1
102
RTVSPropertyOp18
 70
     1
102
RTVSPropertyOp19
 70
     1
102
RTVSPropertyOp20
 70
     1
102
RTVSPropertyOp21
 70
     1
102
RTVSPropertyOp22
 70
     1
102
RTVSPropertyOp23
 70
     1
102
RTVSPropertyOp24
 70
     1
102
RTVSPropertyOp25
 70
     1
102
RTVSPropertyOp26
 70
     1
102
RTVSPropertyOp27
 70
     1
102
RTVSPropertyOp28
 70
     1
102
RTVSPropertyOp29
 70
     1
102
RTVSPropertyOp30
 70
     1
102
RTVSPropertyOp31
 70
     1
102
RTVSPropertyOp32
 70
     1
102
RTVSPropertyOp33
 70
     1
102
RTVSPropertyOp34
 70
     1
102
RTVSPropertyOp35
 70
     1
102
RTVSPropertyOp36
 70
     1
102
RTVSPropertyOp37
 70
     1
102
RTVSPropertyOp38
 70
     1
102
RTVSPropertyOp39
 70
     1
102
RTVSPropertyOp40
 70
     1
102
RTVSPropertyOp41
 70
     1
102
RTVSPropertyOp42
 70
     1
102
RTVSPropertyOp43
 70
     1
102
RTVSPropertyOp44
 70
     1
102
RTVSPropertyOp45
 70
     1
102
RTVSPropertyOp46
 70
     1
102
RTVSPropertyOp47
 70
     1
102
RTVSPropertyOp48
 70
     1
102
RTVSPropertyOp49
 70
     1
102
RTVSPropertyOp50
 70
     1
102
RTVSPropertyOp51
 70
     0
102
RTVSPropertyOp52
 70
     0
102
RTVSPropertyOp53
 70
     1
102
RTVSPropertyOp54
 70
     1
102
RTVSPropertyOp55
 70
     1
102
RTVSPropertyOp56
 70
     1
102
RTVSPropertyOp57
 70
     1
102
RTVSPropertyOp58
 70
     1
102
RTVSPropertyOp59
 70
     1
102
RTVSPropertyOp60
 70
     1
102
RTVSPropertyOp61
 70
     1
102
RTVSPropertyOp62
 70
     1
  0
XRECORD
  5
D93
102
{ACAD_REACTORS
330
D92
102
}
330
D92
100
AcDbXrecord
280
     1
102
RTVSPost2010Prop28
280
     0
102
RTVSPost2010PropOp28
 70
     1
102
RTVSPost2010Prop29
280
     1
102
RTVSPost2010PropOp29
 70
     1
102
RTVSPost2010Prop30
280
     1
102
RTVSPost2010PropOp30
 70
     1
102
RTVSPost2010Prop31
280
     0
102
RTVSPost2010PropOp31
 70
     1
102
RTVSPost2010Prop32
280
     0
102
RTVSPost2010PropOp32
 70
     1
102
RTVSPost2010Prop33
280
     0
102
RTVSPost2010PropOp33
 70
     1
102
RTVSPost2010Prop34
280
     0
102
RTVSPost2010PropOp34
 70
     1
102
RTVSPost2010Prop35
280
     0
102
RTVSPost2010PropOp35
 70
     1
102
RTVSPost2010Prop36
280
     0
102
RTVSPost2010PropOp36
 70
     1
102
RTVSPost2010Prop37
 90
       50
102
RTVSPost2010PropOp37
 70
     1
102
RTVSPost2010Prop38
140
0.0
102
RTVSPost2010PropOp38
 70
     1
102
RTVSPost2010Prop39
140
1.0
102
RTVSPost2010PropOp39
 70
     1
102
RTVSPost2010Prop40
 90
        0
102
RTVSPost2010PropOp40
 70
     1
102
RTVSPost2010Prop41ColorIndex
 90
       18
102
RTVSPost2010Prop41ColorRGB
 90
        0
102
RTVSPost2010PropOp41
 70
     1
102
RTVSPost2010Prop42
 90
       50
102
RTVSPost2010PropOp42
 70
     1
102
RTVSPost2010Prop43
 90
        3
102
RTVSPost2010PropOp43
 70
     1
102
RTVSPost2010Prop44ColorIndex
 90
        5
102
RTVSPost2010Prop44ColorRGB
 90
      255
102
RTVSPost2010PropOp44
 70
     1
102
RTVSPost2010Prop45
280
     0
102
RTVSPost2010PropOp45
 70
     1
102
RTVSPost2010Prop46
 90
       50
102
RTVSPost2010PropOp46
 70
     1
102
RTVSPost2010Prop47
 90
       50
102
RTVSPost2010PropOp47
 70
     1
102
RTVSPost2010Prop48
 90
       50
102
RTVSPost2010PropOp48
 70
     1
102
RTVSPost2010Prop49
280
     0
102
RTVSPost2010PropOp49
 70
     1
102
RTVSPost2010Prop50
 90
       50
102
RTVSPost2010PropOp50
 70
     1
102
RTVSPost2010Prop51ColorIndex
 90
      256
102
RTVSPost2010Prop51ColorRGB
 90
-16777216
102
RTVSPost2010PropOp51
 70
     0
102
RTVSPost2010Prop52
140
1.0
102
RTVSPost2010PropOp52
 70
     0
102
RTVSPost2010Prop53
 90
        2
102
RTVSPost2010PropOp53
 70
     1
102
RTVSPost2010Prop54
  1
strokes_ogs.tif
102
RTVSPost2010PropOp54
 70
     1
102
RTVSPost2010Prop55
280
     0
102
RTVSPost2010PropOp55
 70
     1
102
RTVSPost2010Prop56
140
1.0
102
RTVSPost2010PropOp56
 70
     1
102
RTVSPost2010Prop57
140
1.0
102
RTVSPost2010PropOp57
 70
     1
102
RTVSPropertyOp0
 70
     1
102
RTVSPropertyOp1
 70
     1
102
RTVSPropertyOp2
 70
     1
102
RTVSPropertyOp3
 70
     1
102
RTVSPropertyOp4
 70
     1
102
RTVSPropertyOp5
 70
     1
102
RTVSPropertyOp6
 70
     1
102
RTVSPropertyOp7
 70
     1
102
RTVSPropertyOp8
 70
     1
102
RTVSPropertyOp9
 70
     1
102
RTVSPropertyOp10
 70
     1
102
RTVSPropertyOp11
 70
     1
102
RTVSPropertyOp12
 70
     1
102
RTVSPropertyOp13
 70
     1
102
RTVSPropertyOp14
 70
     1
102
RTVSPropertyOp15
 70
     1
102
RTVSPropertyOp16
 70
     1
102
RTVSPropertyOp17
 70
     1
102
RTVSPropertyOp18
 70
     1
102
RTVSPropertyOp19
 70
     1
102
RTVSPropertyOp20
 70
     1
102
RTVSPropertyOp21
 70
     1
102
RTVSPropertyOp22
 70
     1
102
RTVSPropertyOp23
 70
     1
102
RTVSPropertyOp24
 70
     1
102
RTVSPropertyOp25
 70
     1
102
RTVSPropertyOp26
 70
     1
102
RTVSPropertyOp27
 70
     1
102
RTVSPropertyOp28
 70
     1
102
RTVSPropertyOp29
 70
     1
102
RTVSPropertyOp30
 70
     1
102
RTVSPropertyOp31
 70
     1
102
RTVSPropertyOp32
 70
     1
102
RTVSPropertyOp33
 70
     1
102
RTVSPropertyOp34
 70
     1
102
RTVSPropertyOp35
 70
     1
102
RTVSPropertyOp36
 70
     1
102
RTVSPropertyOp37
 70
     1
102
RTVSPropertyOp38
 70
     1
102
RTVSPropertyOp39
 70
     1
102
RTVSPropertyOp40
 70
     1
102
RTVSPropertyOp41
 70
     1
102
RTVSPropertyOp42
 70
     1
102
RTVSPropertyOp43
 70
     1
102
RTVSPropertyOp44
 70
     1
102
RTVSPropertyOp45
 70
     1
102
RTVSPropertyOp46
 70
     1
102
RTVSPropertyOp47
 70
     1
102
RTVSPropertyOp48
 70
     1
102
RTVSPropertyOp49
 70
     1
102
RTVSPropertyOp50
 70
     1
102
RTVSPropertyOp51
 70
     0
102
RTVSPropertyOp52
 70
     0
102
RTVSPropertyOp53
 70
     1
102
RTVSPropertyOp54
 70
     1
102
RTVSPropertyOp55
 70
     1
102
RTVSPropertyOp56
 70
     1
102
RTVSPropertyOp57
 70
     1
102
RTVSPropertyOp58
 70
     1
102
RTVSPropertyOp59
 70
     1
102
RTVSPropertyOp60
 70
     1
102
RTVSPropertyOp61
 70
     1
102
RTVSPropertyOp62
 70
     1
  0
XRECORD
  5
DAF
102
{ACAD_REACTORS
330
DAE
102
}
330
DAE
100
AcDbXrecord
280
     1
102
RTVSPost2010Prop28
280
     0
102
RTVSPost2010PropOp28
 70
     0
102
RTVSPost2010Prop29
280
     1
102
RTVSPost2010PropOp29
 70
     0
102
RTVSPost2010Prop30
280
     1
102
RTVSPost2010PropOp30
 70
     0
102
RTVSPost2010Prop31
280
     0
102
RTVSPost2010PropOp31
 70
     0
102
RTVSPost2010Prop32
280
     0
102
RTVSPost2010PropOp32
 70
     0
102
RTVSPost2010Prop33
280
     0
102
RTVSPost2010PropOp33
 70
     0
102
RTVSPost2010Prop34
280
     0
102
RTVSPost2010PropOp34
 70
     0
102
RTVSPost2010Prop35
280
     0
102
RTVSPost2010PropOp35
 70
     0
102
RTVSPost2010Prop36
280
     0
102
RTVSPost2010PropOp36
 70
     0
102
RTVSPost2010Prop37
 90
       50
102
RTVSPost2010PropOp37
 70
     0
102
RTVSPost2010Prop38
140
0.0
102
RTVSPost2010PropOp38
 70
     0
102
RTVSPost2010Prop39
140
1.0
102
RTVSPost2010PropOp39
 70
     0
102
RTVSPost2010Prop40
 90
        0
102
RTVSPost2010PropOp40
 70
     0
102
RTVSPost2010Prop41ColorIndex
 90
       18
102
RTVSPost2010Prop41ColorRGB
 90
        0
102
RTVSPost2010PropOp41
 70
     0
102
RTVSPost2010Prop42
 90
       50
102
RTVSPost2010PropOp42
 70
     0
102
RTVSPost2010Prop43
 90
        3
102
RTVSPost2010PropOp43
 70
     0
102
RTVSPost2010Prop44ColorIndex
 90
        5
102
RTVSPost2010Prop44ColorRGB
 90
      255
102
RTVSPost2010PropOp44
 70
     0
102
RTVSPost2010Prop45
280
     0
102
RTVSPost2010PropOp45
 70
     0
102
RTVSPost2010Prop46
 90
       50
102
RTVSPost2010PropOp46
 70
     0
102
RTVSPost2010Prop47
 90
       50
102
RTVSPost2010PropOp47
 70
     0
102
RTVSPost2010Prop48
 90
       50
102
RTVSPost2010PropOp48
 70
     0
102
RTVSPost2010Prop49
280
     0
102
RTVSPost2010PropOp49
 70
     0
102
RTVSPost2010Prop50
 90
       50
102
RTVSPost2010PropOp50
 70
     0
102
RTVSPost2010Prop51ColorIndex
 90
      256
102
RTVSPost2010Prop51ColorRGB
 90
-16777216
102
RTVSPost2010PropOp51
 70
     0
102
RTVSPost2010Prop52
140
1.0
102
RTVSPost2010PropOp52
 70
     0
102
RTVSPost2010Prop53
 90
        2
102
RTVSPost2010PropOp53
 70
     0
102
RTVSPost2010Prop54
  1
strokes_ogs.tif
102
RTVSPost2010PropOp54
 70
     0
102
RTVSPost2010Prop55
280
     0
102
RTVSPost2010PropOp55
 70
     0
102
RTVSPost2010Prop56
140
1.0
102
RTVSPost2010PropOp56
 70
     0
102
RTVSPost2010Prop57
140
1.0
102
RTVSPost2010PropOp57
 70
     0
102
RTVSPropertyOp0
 70
     0
102
RTVSPropertyOp1
 70
     0
102
RTVSPropertyOp2
 70
     0
102
RTVSPropertyOp3
 70
     0
102
RTVSPropertyOp4
 70
     0
102
RTVSPropertyOp5
 70
     0
102
RTVSPropertyOp6
 70
     0
102
RTVSPropertyOp7
 70
     0
102
RTVSPropertyOp8
 70
     0
102
RTVSPropertyOp9
 70
     0
102
RTVSPropertyOp10
 70
     0
102
RTVSPropertyOp11
 70
     0
102
RTVSPropertyOp12
 70
     0
102
RTVSPropertyOp13
 70
     0
102
RTVSPropertyOp14
 70
     2
102
RTVSPropertyOp15
 70
     0
102
RTVSPropertyOp16
 70
     0
102
RTVSPropertyOp17
 70
     0
102
RTVSPropertyOp18
 70
     0
102
RTVSPropertyOp19
 70
     0
102
RTVSPropertyOp20
 70
     0
102
RTVSPropertyOp21
 70
     0
102
RTVSPropertyOp22
 70
     0
102
RTVSPropertyOp23
 70
     0
102
RTVSPropertyOp24
 70
     0
102
RTVSPropertyOp25
 70
     0
102
RTVSPropertyOp26
 70
     0
102
RTVSPropertyOp27
 70
     0
102
RTVSPropertyOp28
 70
     0
102
RTVSPropertyOp29
 70
     0
102
RTVSPropertyOp30
 70
     0
102
RTVSPropertyOp31
 70
     0
102
RTVSPropertyOp32
 70
     0
102
RTVSPropertyOp33
 70
     0
102
RTVSPropertyOp34
 70
     0
102
RTVSPropertyOp35
 70
     0
102
RTVSPropertyOp36
 70
     0
102
RTVSPropertyOp37
 70
     0
102
RTVSPropertyOp38
 70
     0
102
RTVSPropertyOp39
 70
     0
102
RTVSPropertyOp40
 70
     0
102
RTVSPropertyOp41
 70
     0
102
RTVSPropertyOp42
 70
     0
102
RTVSPropertyOp43
 70
     0
102
RTVSPropertyOp44
 70
     0
102
RTVSPropertyOp45
 70
     0
102
RTVSPropertyOp46
 70
     0
102
RTVSPropertyOp47
 70
     0
102
RTVSPropertyOp48
 70
     0
102
RTVSPropertyOp49
 70
     0
102
RTVSPropertyOp50
 70
     0
102
RTVSPropertyOp51
 70
     0
102
RTVSPropertyOp52
 70
     0
102
RTVSPropertyOp53
 70
     0
102
RTVSPropertyOp54
 70
     0
102
RTVSPropertyOp55
 70
     0
102
RTVSPropertyOp56
 70
     0
102
RTVSPropertyOp57
 70
     0
102
RTVSPropertyOp58
 70
     1
102
RTVSPropertyOp59
 70
     1
102
RTVSPropertyOp60
 70
     1
102
RTVSPropertyOp61
 70
     1
102
RTVSPropertyOp62
 70
     1
  0
XRECORD
  5
D9F
102
{ACAD_REACTORS
330
D9E
102
}
330
D9E
100
AcDbXrecord
280
     1
102
RTVSPost2010Prop28
280
     0
102
RTVSPost2010PropOp28
 70
     1
102
RTVSPost2010Prop29
280
     1
102
RTVSPost2010PropOp29
 70
     1
102
RTVSPost2010Prop30
280
     1
102
RTVSPost2010PropOp30
 70
     1
102
RTVSPost2010Prop31
280
     0
102
RTVSPost2010PropOp31
 70
     1
102
RTVSPost2010Prop32
280
     0
102
RTVSPost2010PropOp32
 70
     1
102
RTVSPost2010Prop33
280
     0
102
RTVSPost2010PropOp33
 70
     1
102
RTVSPost2010Prop34
280
     0
102
RTVSPost2010PropOp34
 70
     1
102
RTVSPost2010Prop35
280
     0
102
RTVSPost2010PropOp35
 70
     1
102
RTVSPost2010Prop36
280
     0
102
RTVSPost2010PropOp36
 70
     1
102
RTVSPost2010Prop37
 90
       50
102
RTVSPost2010PropOp37
 70
     1
102
RTVSPost2010Prop38
140
0.0
102
RTVSPost2010PropOp38
 70
     1
102
RTVSPost2010Prop39
140
1.0
102
RTVSPost2010PropOp39
 70
     1
102
RTVSPost2010Prop40
 90
        0
102
RTVSPost2010PropOp40
 70
     1
102
RTVSPost2010Prop41ColorIndex
 90
       18
102
RTVSPost2010Prop41ColorRGB
 90
        0
102
RTVSPost2010PropOp41
 70
     1
102
RTVSPost2010Prop42
 90
       50
102
RTVSPost2010PropOp42
 70
     1
102
RTVSPost2010Prop43
 90
        3
102
RTVSPost2010PropOp43
 70
     1
102
RTVSPost2010Prop44ColorIndex
 90
        5
102
RTVSPost2010Prop44ColorRGB
 90
      255
102
RTVSPost2010PropOp44
 70
     1
102
RTVSPost2010Prop45
280
     0
102
RTVSPost2010PropOp45
 70
     1
102
RTVSPost2010Prop46
 90
       50
102
RTVSPost2010PropOp46
 70
     1
102
RTVSPost2010Prop47
 90
       50
102
RTVSPost2010PropOp47
 70
     1
102
RTVSPost2010Prop48
 90
       50
102
RTVSPost2010PropOp48
 70
     1
102
RTVSPost2010Prop49
280
     0
102
RTVSPost2010PropOp49
 70
     1
102
RTVSPost2010Prop50
 90
       50
102
RTVSPost2010PropOp50
 70
     1
102
RTVSPost2010Prop51ColorIndex
 90
      256
102
RTVSPost2010Prop51ColorRGB
 90
-16777216
102
RTVSPost2010PropOp51
 70
     0
102
RTVSPost2010Prop52
140
1.0
102
RTVSPost2010PropOp52
 70
     0
102
RTVSPost2010Prop53
 90
        2
102
RTVSPost2010PropOp53
 70
     1
102
RTVSPost2010Prop54
  1
strokes_ogs.tif
102
RTVSPost2010PropOp54
 70
     1
102
RTVSPost2010Prop55
280
     0
102
RTVSPost2010PropOp55
 70
     1
102
RTVSPost2010Prop56
140
1.0
102
RTVSPost2010PropOp56
 70
     1
102
RTVSPost2010Prop57
140
1.0
102
RTVSPost2010PropOp57
 70
     1
102
RTVSPropertyOp0
 70
     1
102
RTVSPropertyOp1
 70
     1
102
RTVSPropertyOp2
 70
     1
102
RTVSPropertyOp3
 70
     1
102
RTVSPropertyOp4
 70
     1
102
RTVSPropertyOp5
 70
     1
102
RTVSPropertyOp6
 70
     1
102
RTVSPropertyOp7
 70
     1
102
RTVSPropertyOp8
 70
     1
102
RTVSPropertyOp9
 70
     1
102
RTVSPropertyOp10
 70
     1
102
RTVSPropertyOp11
 70
     1
102
RTVSPropertyOp12
 70
     1
102
RTVSPropertyOp13
 70
     1
102
RTVSPropertyOp14
 70
     1
102
RTVSPropertyOp15
 70
     1
102
RTVSPropertyOp16
 70
     1
102
RTVSPropertyOp17
 70
     1
102
RTVSPropertyOp18
 70
     1
102
RTVSPropertyOp19
 70
     1
102
RTVSPropertyOp20
 70
     1
102
RTVSPropertyOp21
 70
     1
102
RTVSPropertyOp22
 70
     1
102
RTVSPropertyOp23
 70
     1
102
RTVSPropertyOp24
 70
     1
102
RTVSPropertyOp25
 70
     1
102
RTVSPropertyOp26
 70
     1
102
RTVSPropertyOp27
 70
     1
102
RTVSPropertyOp28
 70
     1
102
RTVSPropertyOp29
 70
     1
102
RTVSPropertyOp30
 70
     1
102
RTVSPropertyOp31
 70
     1
102
RTVSPropertyOp32
 70
     1
102
RTVSPropertyOp33
 70
     1
102
RTVSPropertyOp34
 70
     1
102
RTVSPropertyOp35
 70
     1
102
RTVSPropertyOp36
 70
     1
102
RTVSPropertyOp37
 70
     1
102
RTVSPropertyOp38
 70
     1
102
RTVSPropertyOp39
 70
     1
102
RTVSPropertyOp40
 70
     1
102
RTVSPropertyOp41
 70
     1
102
RTVSPropertyOp42
 70
     1
102
RTVSPropertyOp43
 70
     1
102
RTVSPropertyOp44
 70
     1
102
RTVSPropertyOp45
 70
     1
102
RTVSPropertyOp46
 70
     1
102
RTVSPropertyOp47
 70
     1
102
RTVSPropertyOp48
 70
     1
102
RTVSPropertyOp49
 70
     1
102
RTVSPropertyOp50
 70
     1
102
RTVSPropertyOp51
 70
     0
102
RTVSPropertyOp52
 70
     0
102
RTVSPropertyOp53
 70
     1
102
RTVSPropertyOp54
 70
     1
102
RTVSPropertyOp55
 70
     1
102
RTVSPropertyOp56
 70
     1
102
RTVSPropertyOp57
 70
     1
102
RTVSPropertyOp58
 70
     1
102
RTVSPropertyOp59
 70
     1
102
RTVSPropertyOp60
 70
     1
102
RTVSPropertyOp61
 70
     1
102
RTVSPropertyOp62
 70
     1
  0
XRECORD
  5
DB1
102
{ACAD_REACTORS
330
DB0
102
}
330
DB0
100
AcDbXrecord
280
     1
102
RTVSPost2010Prop28
280
     0
102
RTVSPost2010PropOp28
 70
     0
102
RTVSPost2010Prop29
280
     1
102
RTVSPost2010PropOp29
 70
     0
102
RTVSPost2010Prop30
280
     1
102
RTVSPost2010PropOp30
 70
     0
102
RTVSPost2010Prop31
280
     0
102
RTVSPost2010PropOp31
 70
     0
102
RTVSPost2010Prop32
280
     0
102
RTVSPost2010PropOp32
 70
     0
102
RTVSPost2010Prop33
280
     0
102
RTVSPost2010PropOp33
 70
     0
102
RTVSPost2010Prop34
280
     0
102
RTVSPost2010PropOp34
 70
     0
102
RTVSPost2010Prop35
280
     0
102
RTVSPost2010PropOp35
 70
     0
102
RTVSPost2010Prop36
280
     0
102
RTVSPost2010PropOp36
 70
     0
102
RTVSPost2010Prop37
 90
       50
102
RTVSPost2010PropOp37
 70
     0
102
RTVSPost2010Prop38
140
0.0
102
RTVSPost2010PropOp38
 70
     0
102
RTVSPost2010Prop39
140
1.0
102
RTVSPost2010PropOp39
 70
     0
102
RTVSPost2010Prop40
 90
        0
102
RTVSPost2010PropOp40
 70
     0
102
RTVSPost2010Prop41ColorIndex
 90
       18
102
RTVSPost2010Prop41ColorRGB
 90
        0
102
RTVSPost2010PropOp41
 70
     0
102
RTVSPost2010Prop42
 90
       50
102
RTVSPost2010PropOp42
 70
     0
102
RTVSPost2010Prop43
 90
        3
102
RTVSPost2010PropOp43
 70
     0
102
RTVSPost2010Prop44ColorIndex
 90
        5
102
RTVSPost2010Prop44ColorRGB
 90
      255
102
RTVSPost2010PropOp44
 70
     0
102
RTVSPost2010Prop45
280
     0
102
RTVSPost2010PropOp45
 70
     0
102
RTVSPost2010Prop46
 90
       50
102
RTVSPost2010PropOp46
 70
     0
102
RTVSPost2010Prop47
 90
       50
102
RTVSPost2010PropOp47
 70
     0
102
RTVSPost2010Prop48
 90
       50
102
RTVSPost2010PropOp48
 70
     0
102
RTVSPost2010Prop49
280
     0
102
RTVSPost2010PropOp49
 70
     0
102
RTVSPost2010Prop50
 90
       50
102
RTVSPost2010PropOp50
 70
     0
102
RTVSPost2010Prop51ColorIndex
 90
      256
102
RTVSPost2010Prop51ColorRGB
 90
-16777216
102
RTVSPost2010PropOp51
 70
     0
102
RTVSPost2010Prop52
140
1.0
102
RTVSPost2010PropOp52
 70
     0
102
RTVSPost2010Prop53
 90
        2
102
RTVSPost2010PropOp53
 70
     0
102
RTVSPost2010Prop54
  1
strokes_ogs.tif
102
RTVSPost2010PropOp54
 70
     0
102
RTVSPost2010Prop55
280
     0
102
RTVSPost2010PropOp55
 70
     0
102
RTVSPost2010Prop56
140
1.0
102
RTVSPost2010PropOp56
 70
     0
102
RTVSPost2010Prop57
140
1.0
102
RTVSPost2010PropOp57
 70
     0
102
RTVSPropertyOp0
 70
     0
102
RTVSPropertyOp1
 70
     0
102
RTVSPropertyOp2
 70
     0
102
RTVSPropertyOp3
 70
     0
102
RTVSPropertyOp4
 70
     0
102
RTVSPropertyOp5
 70
     0
102
RTVSPropertyOp6
 70
     0
102
RTVSPropertyOp7
 70
     0
102
RTVSPropertyOp8
 70
     0
102
RTVSPropertyOp9
 70
     0
102
RTVSPropertyOp10
 70
     0
102
RTVSPropertyOp11
 70
     0
102
RTVSPropertyOp12
 70
     0
102
RTVSPropertyOp13
 70
     0
102
RTVSPropertyOp14
 70
     2
102
RTVSPropertyOp15
 70
     0
102
RTVSPropertyOp16
 70
     0
102
RTVSPropertyOp17
 70
     0
102
RTVSPropertyOp18
 70
     0
102
RTVSPropertyOp19
 70
     0
102
RTVSPropertyOp20
 70
     0
102
RTVSPropertyOp21
 70
     0
102
RTVSPropertyOp22
 70
     0
102
RTVSPropertyOp23
 70
     0
102
RTVSPropertyOp24
 70
     0
102
RTVSPropertyOp25
 70
     0
102
RTVSPropertyOp26
 70
     0
102
RTVSPropertyOp27
 70
     0
102
RTVSPropertyOp28
 70
     0
102
RTVSPropertyOp29
 70
     0
102
RTVSPropertyOp30
 70
     0
102
RTVSPropertyOp31
 70
     0
102
RTVSPropertyOp32
 70
     0
102
RTVSPropertyOp33
 70
     0
102
RTVSPropertyOp34
 70
     0
102
RTVSPropertyOp35
 70
     0
102
RTVSPropertyOp36
 70
     0
102
RTVSPropertyOp37
 70
     0
102
RTVSPropertyOp38
 70
     0
102
RTVSPropertyOp39
 70
     0
102
RTVSPropertyOp40
 70
     0
102
RTVSPropertyOp41
 70
     0
102
RTVSPropertyOp42
 70
     0
102
RTVSPropertyOp43
 70
     0
102
RTVSPropertyOp44
 70
     0
102
RTVSPropertyOp45
 70
     0
102
RTVSPropertyOp46
 70
     0
102
RTVSPropertyOp47
 70
     0
102
RTVSPropertyOp48
 70
     0
102
RTVSPropertyOp49
 70
     0
102
RTVSPropertyOp50
 70
     0
102
RTVSPropertyOp51
 70
     0
102
RTVSPropertyOp52
 70
     0
102
RTVSPropertyOp53
 70
     0
102
RTVSPropertyOp54
 70
     0
102
RTVSPropertyOp55
 70
     0
102
RTVSPropertyOp56
 70
     0
102
RTVSPropertyOp57
 70
     0
102
RTVSPropertyOp58
 70
     1
102
RTVSPropertyOp59
 70
     1
102
RTVSPropertyOp60
 70
     1
102
RTVSPropertyOp61
 70
     1
102
RTVSPropertyOp62
 70
     1
  0
XRECORD
  5
D97
102
{ACAD_REACTORS
330
D96
102
}
330
D96
100
AcDbXrecord
280
     1
102
RTVSPost2010Prop28
280
     0
102
RTVSPost2010PropOp28
 70
     1
102
RTVSPost2010Prop29
280
     1
102
RTVSPost2010PropOp29
 70
     1
102
RTVSPost2010Prop30
280
     1
102
RTVSPost2010PropOp30
 70
     1
102
RTVSPost2010Prop31
280
     0
102
RTVSPost2010PropOp31
 70
     1
102
RTVSPost2010Prop32
280
     0
102
RTVSPost2010PropOp32
 70
     1
102
RTVSPost2010Prop33
280
     0
102
RTVSPost2010PropOp33
 70
     1
102
RTVSPost2010Prop34
280
     0
102
RTVSPost2010PropOp34
 70
     1
102
RTVSPost2010Prop35
280
     0
102
RTVSPost2010PropOp35
 70
     1
102
RTVSPost2010Prop36
280
     0
102
RTVSPost2010PropOp36
 70
     1
102
RTVSPost2010Prop37
 90
       50
102
RTVSPost2010PropOp37
 70
     1
102
RTVSPost2010Prop38
140
0.0
102
RTVSPost2010PropOp38
 70
     1
102
RTVSPost2010Prop39
140
1.0
102
RTVSPost2010PropOp39
 70
     1
102
RTVSPost2010Prop40
 90
        0
102
RTVSPost2010PropOp40
 70
     1
102
RTVSPost2010Prop41ColorIndex
 90
       18
102
RTVSPost2010Prop41ColorRGB
 90
        0
102
RTVSPost2010PropOp41
 70
     1
102
RTVSPost2010Prop42
 90
       50
102
RTVSPost2010PropOp42
 70
     1
102
RTVSPost2010Prop43
 90
        3
102
RTVSPost2010PropOp43
 70
     1
102
RTVSPost2010Prop44ColorIndex
 90
        5
102
RTVSPost2010Prop44ColorRGB
 90
      255
102
RTVSPost2010PropOp44
 70
     1
102
RTVSPost2010Prop45
280
     0
102
RTVSPost2010PropOp45
 70
     1
102
RTVSPost2010Prop46
 90
       50
102
RTVSPost2010PropOp46
 70
     1
102
RTVSPost2010Prop47
 90
       50
102
RTVSPost2010PropOp47
 70
     1
102
RTVSPost2010Prop48
 90
       50
102
RTVSPost2010PropOp48
 70
     1
102
RTVSPost2010Prop49
280
     0
102
RTVSPost2010PropOp49
 70
     1
102
RTVSPost2010Prop50
 90
       50
102
RTVSPost2010PropOp50
 70
     1
102
RTVSPost2010Prop51ColorIndex
 90
      256
102
RTVSPost2010Prop51ColorRGB
 90
-16777216
102
RTVSPost2010PropOp51
 70
     0
102
RTVSPost2010Prop52
140
1.0
102
RTVSPost2010PropOp52
 70
     0
102
RTVSPost2010Prop53
 90
        2
102
RTVSPost2010PropOp53
 70
     1
102
RTVSPost2010Prop54
  1
strokes_ogs.tif
102
RTVSPost2010PropOp54
 70
     1
102
RTVSPost2010Prop55
280
     0
102
RTVSPost2010PropOp55
 70
     1
102
RTVSPost2010Prop56
140
1.0
102
RTVSPost2010PropOp56
 70
     1
102
RTVSPost2010Prop57
140
1.0
102
RTVSPost2010PropOp57
 70
     1
102
RTVSPropertyOp0
 70
     1
102
RTVSPropertyOp1
 70
     1
102
RTVSPropertyOp2
 70
     1
102
RTVSPropertyOp3
 70
     1
102
RTVSPropertyOp4
 70
     1
102
RTVSPropertyOp5
 70
     1
102
RTVSPropertyOp6
 70
     1
102
RTVSPropertyOp7
 70
     1
102
RTVSPropertyOp8
 70
     1
102
RTVSPropertyOp9
 70
     1
102
RTVSPropertyOp10
 70
     1
102
RTVSPropertyOp11
 70
     1
102
RTVSPropertyOp12
 70
     1
102
RTVSPropertyOp13
 70
     1
102
RTVSPropertyOp14
 70
     1
102
RTVSPropertyOp15
 70
     1
102
RTVSPropertyOp16
 70
     1
102
RTVSPropertyOp17
 70
     1
102
RTVSPropertyOp18
 70
     1
102
RTVSPropertyOp19
 70
     1
102
RTVSPropertyOp20
 70
     1
102
RTVSPropertyOp21
 70
     1
102
RTVSPropertyOp22
 70
     1
102
RTVSPropertyOp23
 70
     1
102
RTVSPropertyOp24
 70
     1
102
RTVSPropertyOp25
 70
     1
102
RTVSPropertyOp26
 70
     1
102
RTVSPropertyOp27
 70
     1
102
RTVSPropertyOp28
 70
     1
102
RTVSPropertyOp29
 70
     1
102
RTVSPropertyOp30
 70
     1
102
RTVSPropertyOp31
 70
     1
102
RTVSPropertyOp32
 70
     1
102
RTVSPropertyOp33
 70
     1
102
RTVSPropertyOp34
 70
     1
102
RTVSPropertyOp35
 70
     1
102
RTVSPropertyOp36
 70
     1
102
RTVSPropertyOp37
 70
     1
102
RTVSPropertyOp38
 70
     1
102
RTVSPropertyOp39
 70
     1
102
RTVSPropertyOp40
 70
     1
102
RTVSPropertyOp41
 70
     1
102
RTVSPropertyOp42
 70
     1
102
RTVSPropertyOp43
 70
     1
102
RTVSPropertyOp44
 70
     1
102
RTVSPropertyOp45
 70
     1
102
RTVSPropertyOp46
 70
     1
102
RTVSPropertyOp47
 70
     1
102
RTVSPropertyOp48
 70
     1
102
RTVSPropertyOp49
 70
     1
102
RTVSPropertyOp50
 70
     1
102
RTVSPropertyOp51
 70
     0
102
RTVSPropertyOp52
 70
     0
102
RTVSPropertyOp53
 70
     1
102
RTVSPropertyOp54
 70
     1
102
RTVSPropertyOp55
 70
     1
102
RTVSPropertyOp56
 70
     1
102
RTVSPropertyOp57
 70
     1
102
RTVSPropertyOp58
 70
     1
102
RTVSPropertyOp59
 70
     1
102
RTVSPropertyOp60
 70
     1
102
RTVSPropertyOp61
 70
     1
102
RTVSPropertyOp62
 70
     1
  0
XRECORD
  5
DAD
102
{ACAD_REACTORS
330
DAC
102
}
330
DAC
100
AcDbXrecord
280
     1
102
RTVSPost2010Prop28
280
     0
102
RTVSPost2010PropOp28
 70
     1
102
RTVSPost2010Prop29
280
     1
102
RTVSPost2010PropOp29
 70
     1
102
RTVSPost2010Prop30
280
     1
102
RTVSPost2010PropOp30
 70
     1
102
RTVSPost2010Prop31
280
     0
102
RTVSPost2010PropOp31
 70
     1
102
RTVSPost2010Prop32
280
     0
102
RTVSPost2010PropOp32
 70
     1
102
RTVSPost2010Prop33
280
     0
102
RTVSPost2010PropOp33
 70
     1
102
RTVSPost2010Prop34
280
     0
102
RTVSPost2010PropOp34
 70
     1
102
RTVSPost2010Prop35
280
     0
102
RTVSPost2010PropOp35
 70
     1
102
RTVSPost2010Prop36
280
     0
102
RTVSPost2010PropOp36
 70
     1
102
RTVSPost2010Prop37
 90
       50
102
RTVSPost2010PropOp37
 70
     1
102
RTVSPost2010Prop38
140
0.0
102
RTVSPost2010PropOp38
 70
     1
102
RTVSPost2010Prop39
140
1.0
102
RTVSPost2010PropOp39
 70
     1
102
RTVSPost2010Prop40
 90
        0
102
RTVSPost2010PropOp40
 70
     1
102
RTVSPost2010Prop41ColorIndex
 90
       18
102
RTVSPost2010Prop41ColorRGB
 90
        0
102
RTVSPost2010PropOp41
 70
     1
102
RTVSPost2010Prop42
 90
       50
102
RTVSPost2010PropOp42
 70
     1
102
RTVSPost2010Prop43
 90
        3
102
RTVSPost2010PropOp43
 70
     1
102
RTVSPost2010Prop44ColorIndex
 90
        5
102
RTVSPost2010Prop44ColorRGB
 90
      255
102
RTVSPost2010PropOp44
 70
     1
102
RTVSPost2010Prop45
280
     0
102
RTVSPost2010PropOp45
 70
     1
102
RTVSPost2010Prop46
 90
       50
102
RTVSPost2010PropOp46
 70
     1
102
RTVSPost2010Prop47
 90
       50
102
RTVSPost2010PropOp47
 70
     1
102
RTVSPost2010Prop48
 90
       50
102
RTVSPost2010PropOp48
 70
     1
102
RTVSPost2010Prop49
280
     0
102
RTVSPost2010PropOp49
 70
     1
102
RTVSPost2010Prop50
 90
       50
102
RTVSPost2010PropOp50
 70
     1
102
RTVSPost2010Prop51ColorIndex
 90
      256
102
RTVSPost2010Prop51ColorRGB
 90
-16777216
102
RTVSPost2010PropOp51
 70
     0
102
RTVSPost2010Prop52
140
1.0
102
RTVSPost2010PropOp52
 70
     0
102
RTVSPost2010Prop53
 90
        2
102
RTVSPost2010PropOp53
 70
     1
102
RTVSPost2010Prop54
  1
strokes_ogs.tif
102
RTVSPost2010PropOp54
 70
     1
102
RTVSPost2010Prop55
280
     0
102
RTVSPost2010PropOp55
 70
     1
102
RTVSPost2010Prop56
140
1.0
102
RTVSPost2010PropOp56
 70
     1
102
RTVSPost2010Prop57
140
1.0
102
RTVSPost2010PropOp57
 70
     1
102
RTVSPropertyOp0
 70
     1
102
RTVSPropertyOp1
 70
     1
102
RTVSPropertyOp2
 70
     1
102
RTVSPropertyOp3
 70
     1
102
RTVSPropertyOp4
 70
     1
102
RTVSPropertyOp5
 70
     1
102
RTVSPropertyOp6
 70
     1
102
RTVSPropertyOp7
 70
     1
102
RTVSPropertyOp8
 70
     1
102
RTVSPropertyOp9
 70
     1
102
RTVSPropertyOp10
 70
     1
102
RTVSPropertyOp11
 70
     1
102
RTVSPropertyOp12
 70
     1
102
RTVSPropertyOp13
 70
     1
102
RTVSPropertyOp14
 70
     1
102
RTVSPropertyOp15
 70
     1
102
RTVSPropertyOp16
 70
     1
102
RTVSPropertyOp17
 70
     1
102
RTVSPropertyOp18
 70
     1
102
RTVSPropertyOp19
 70
     1
102
RTVSPropertyOp20
 70
     1
102
RTVSPropertyOp21
 70
     1
102
RTVSPropertyOp22
 70
     1
102
RTVSPropertyOp23
 70
     1
102
RTVSPropertyOp24
 70
     1
102
RTVSPropertyOp25
 70
     1
102
RTVSPropertyOp26
 70
     1
102
RTVSPropertyOp27
 70
     1
102
RTVSPropertyOp28
 70
     1
102
RTVSPropertyOp29
 70
     1
102
RTVSPropertyOp30
 70
     1
102
RTVSPropertyOp31
 70
     1
102
RTVSPropertyOp32
 70
     1
102
RTVSPropertyOp33
 70
     1
102
RTVSPropertyOp34
 70
     1
102
RTVSPropertyOp35
 70
     1
102
RTVSPropertyOp36
 70
     1
102
RTVSPropertyOp37
 70
     1
102
RTVSPropertyOp38
 70
     1
102
RTVSPropertyOp39
 70
     1
102
RTVSPropertyOp40
 70
     1
102
RTVSPropertyOp41
 70
     1
102
RTVSPropertyOp42
 70
     1
102
RTVSPropertyOp43
 70
     1
102
RTVSPropertyOp44
 70
     1
102
RTVSPropertyOp45
 70
     1
102
RTVSPropertyOp46
 70
     1
102
RTVSPropertyOp47
 70
     1
102
RTVSPropertyOp48
 70
     1
102
RTVSPropertyOp49
 70
     1
102
RTVSPropertyOp50
 70
     1
102
RTVSPropertyOp51
 70
     0
102
RTVSPropertyOp52
 70
     0
102
RTVSPropertyOp53
 70
     1
102
RTVSPropertyOp54
 70
     1
102
RTVSPropertyOp55
 70
     1
102
RTVSPropertyOp56
 70
     1
102
RTVSPropertyOp57
 70
     1
102
RTVSPropertyOp58
 70
     1
102
RTVSPropertyOp59
 70
     1
102
RTVSPropertyOp60
 70
     1
102
RTVSPropertyOp61
 70
     1
102
RTVSPropertyOp62
 70
     1
  0
XRECORD
  5
DAB
102
{ACAD_REACTORS
330
DAA
102
}
330
DAA
100
AcDbXrecord
280
     1
102
RTVSPost2010Prop28
280
     0
102
RTVSPost2010PropOp28
 70
     1
102
RTVSPost2010Prop29
280
     1
102
RTVSPost2010PropOp29
 70
     1
102
RTVSPost2010Prop30
280
     1
102
RTVSPost2010PropOp30
 70
     1
102
RTVSPost2010Prop31
280
     0
102
RTVSPost2010PropOp31
 70
     1
102
RTVSPost2010Prop32
280
     0
102
RTVSPost2010PropOp32
 70
     1
102
RTVSPost2010Prop33
280
     0
102
RTVSPost2010PropOp33
 70
     1
102
RTVSPost2010Prop34
280
     0
102
RTVSPost2010PropOp34
 70
     1
102
RTVSPost2010Prop35
280
     0
102
RTVSPost2010PropOp35
 70
     1
102
RTVSPost2010Prop36
280
     0
102
RTVSPost2010PropOp36
 70
     1
102
RTVSPost2010Prop37
 90
       50
102
RTVSPost2010PropOp37
 70
     1
102
RTVSPost2010Prop38
140
0.0
102
RTVSPost2010PropOp38
 70
     1
102
RTVSPost2010Prop39
140
1.0
102
RTVSPost2010PropOp39
 70
     1
102
RTVSPost2010Prop40
 90
        0
102
RTVSPost2010PropOp40
 70
     1
102
RTVSPost2010Prop41ColorIndex
 90
       18
102
RTVSPost2010Prop41ColorRGB
 90
        0
102
RTVSPost2010PropOp41
 70
     1
102
RTVSPost2010Prop42
 90
       50
102
RTVSPost2010PropOp42
 70
     1
102
RTVSPost2010Prop43
 90
        3
102
RTVSPost2010PropOp43
 70
     1
102
RTVSPost2010Prop44ColorIndex
 90
        5
102
RTVSPost2010Prop44ColorRGB
 90
      255
102
RTVSPost2010PropOp44
 70
     1
102
RTVSPost2010Prop45
280
     0
102
RTVSPost2010PropOp45
 70
     1
102
RTVSPost2010Prop46
 90
       50
102
RTVSPost2010PropOp46
 70
     1
102
RTVSPost2010Prop47
 90
       50
102
RTVSPost2010PropOp47
 70
     1
102
RTVSPost2010Prop48
 90
       50
102
RTVSPost2010PropOp48
 70
     1
102
RTVSPost2010Prop49
280
     0
102
RTVSPost2010PropOp49
 70
     1
102
RTVSPost2010Prop50
 90
       50
102
RTVSPost2010PropOp50
 70
     1
102
RTVSPost2010Prop51ColorIndex
 90
      256
102
RTVSPost2010Prop51ColorRGB
 90
-16777216
102
RTVSPost2010PropOp51
 70
     0
102
RTVSPost2010Prop52
140
1.0
102
RTVSPost2010PropOp52
 70
     0
102
RTVSPost2010Prop53
 90
        2
102
RTVSPost2010PropOp53
 70
     1
102
RTVSPost2010Prop54
  1
strokes_ogs.tif
102
RTVSPost2010PropOp54
 70
     1
102
RTVSPost2010Prop55
280
     0
102
RTVSPost2010PropOp55
 70
     1
102
RTVSPost2010Prop56
140
1.0
102
RTVSPost2010PropOp56
 70
     1
102
RTVSPost2010Prop57
140
1.0
102
RTVSPost2010PropOp57
 70
     1
102
RTVSPropertyOp0
 70
     1
102
RTVSPropertyOp1
 70
     1
102
RTVSPropertyOp2
 70
     1
102
RTVSPropertyOp3
 70
     1
102
RTVSPropertyOp4
 70
     1
102
RTVSPropertyOp5
 70
     1
102
RTVSPropertyOp6
 70
     1
102
RTVSPropertyOp7
 70
     1
102
RTVSPropertyOp8
 70
     1
102
RTVSPropertyOp9
 70
     1
102
RTVSPropertyOp10
 70
     1
102
RTVSPropertyOp11
 70
     1
102
RTVSPropertyOp12
 70
     1
102
RTVSPropertyOp13
 70
     1
102
RTVSPropertyOp14
 70
     1
102
RTVSPropertyOp15
 70
     1
102
RTVSPropertyOp16
 70
     1
102
RTVSPropertyOp17
 70
     1
102
RTVSPropertyOp18
 70
     1
102
RTVSPropertyOp19
 70
     1
102
RTVSPropertyOp20
 70
     1
102
RTVSPropertyOp21
 70
     1
102
RTVSPropertyOp22
 70
     1
102
RTVSPropertyOp23
 70
     1
102
RTVSPropertyOp24
 70
     1
102
RTVSPropertyOp25
 70
     1
102
RTVSPropertyOp26
 70
     1
102
RTVSPropertyOp27
 70
     1
102
RTVSPropertyOp28
 70
     1
102
RTVSPropertyOp29
 70
     1
102
RTVSPropertyOp30
 70
     1
102
RTVSPropertyOp31
 70
     1
102
RTVSPropertyOp32
 70
     1
102
RTVSPropertyOp33
 70
     1
102
RTVSPropertyOp34
 70
     1
102
RTVSPropertyOp35
 70
     1
102
RTVSPropertyOp36
 70
     1
102
RTVSPropertyOp37
 70
     1
102
RTVSPropertyOp38
 70
     1
102
RTVSPropertyOp39
 70
     1
102
RTVSPropertyOp40
 70
     1
102
RTVSPropertyOp41
 70
     1
102
RTVSPropertyOp42
 70
     1
102
RTVSPropertyOp43
 70
     1
102
RTVSPropertyOp44
 70
     1
102
RTVSPropertyOp45
 70
     1
102
RTVSPropertyOp46
 70
     1
102
RTVSPropertyOp47
 70
     1
102
RTVSPropertyOp48
 70
     1
102
RTVSPropertyOp49
 70
     1
102
RTVSPropertyOp50
 70
     1
102
RTVSPropertyOp51
 70
     0
102
RTVSPropertyOp52
 70
     0
102
RTVSPropertyOp53
 70
     1
102
RTVSPropertyOp54
 70
     1
102
RTVSPropertyOp55
 70
     1
102
RTVSPropertyOp56
 70
     1
102
RTVSPropertyOp57
 70
     1
102
RTVSPropertyOp58
 70
     1
102
RTVSPropertyOp59
 70
     1
102
RTVSPropertyOp60
 70
     1
102
RTVSPropertyOp61
 70
     1
102
RTVSPropertyOp62
 70
     1
  0
XRECORD
  5
DA5
102
{ACAD_REACTORS
330
DA4
102
}
330
DA4
100
AcDbXrecord
280
     1
102
RTVSPost2010Prop28
280
     0
102
RTVSPost2010PropOp28
 70
     1
102
RTVSPost2010Prop29
280
     1
102
RTVSPost2010PropOp29
 70
     1
102
RTVSPost2010Prop30
280
     1
102
RTVSPost2010PropOp30
 70
     1
102
RTVSPost2010Prop31
280
     0
102
RTVSPost2010PropOp31
 70
     1
102
RTVSPost2010Prop32
280
     0
102
RTVSPost2010PropOp32
 70
     1
102
RTVSPost2010Prop33
280
     0
102
RTVSPost2010PropOp33
 70
     1
102
RTVSPost2010Prop34
280
     0
102
RTVSPost2010PropOp34
 70
     1
102
RTVSPost2010Prop35
280
     0
102
RTVSPost2010PropOp35
 70
     1
102
RTVSPost2010Prop36
280
     0
102
RTVSPost2010PropOp36
 70
     1
102
RTVSPost2010Prop37
 90
       50
102
RTVSPost2010PropOp37
 70
     1
102
RTVSPost2010Prop38
140
0.0
102
RTVSPost2010PropOp38
 70
     1
102
RTVSPost2010Prop39
140
1.0
102
RTVSPost2010PropOp39
 70
     1
102
RTVSPost2010Prop40
 90
        0
102
RTVSPost2010PropOp40
 70
     1
102
RTVSPost2010Prop41ColorIndex
 90
       18
102
RTVSPost2010Prop41ColorRGB
 90
        0
102
RTVSPost2010PropOp41
 70
     1
102
RTVSPost2010Prop42
 90
       50
102
RTVSPost2010PropOp42
 70
     1
102
RTVSPost2010Prop43
 90
        3
102
RTVSPost2010PropOp43
 70
     1
102
RTVSPost2010Prop44ColorIndex
 90
        5
102
RTVSPost2010Prop44ColorRGB
 90
      255
102
RTVSPost2010PropOp44
 70
     1
102
RTVSPost2010Prop45
280
     0
102
RTVSPost2010PropOp45
 70
     1
102
RTVSPost2010Prop46
 90
       50
102
RTVSPost2010PropOp46
 70
     1
102
RTVSPost2010Prop47
 90
       50
102
RTVSPost2010PropOp47
 70
     1
102
RTVSPost2010Prop48
 90
       50
102
RTVSPost2010PropOp48
 70
     1
102
RTVSPost2010Prop49
280
     0
102
RTVSPost2010PropOp49
 70
     1
102
RTVSPost2010Prop50
 90
       50
102
RTVSPost2010PropOp50
 70
     1
102
RTVSPost2010Prop51ColorIndex
 90
      256
102
RTVSPost2010Prop51ColorRGB
 90
-16777216
102
RTVSPost2010PropOp51
 70
     0
102
RTVSPost2010Prop52
140
1.0
102
RTVSPost2010PropOp52
 70
     0
102
RTVSPost2010Prop53
 90
        2
102
RTVSPost2010PropOp53
 70
     1
102
RTVSPost2010Prop54
  1
strokes_ogs.tif
102
RTVSPost2010PropOp54
 70
     1
102
RTVSPost2010Prop55
280
     0
102
RTVSPost2010PropOp55
 70
     1
102
RTVSPost2010Prop56
140
1.0
102
RTVSPost2010PropOp56
 70
     1
102
RTVSPost2010Prop57
140
1.0
102
RTVSPost2010PropOp57
 70
     1
102
RTVSPropertyOp0
 70
     1
102
RTVSPropertyOp1
 70
     1
102
RTVSPropertyOp2
 70
     1
102
RTVSPropertyOp3
 70
     1
102
RTVSPropertyOp4
 70
     1
102
RTVSPropertyOp5
 70
     1
102
RTVSPropertyOp6
 70
     1
102
RTVSPropertyOp7
 70
     1
102
RTVSPropertyOp8
 70
     1
102
RTVSPropertyOp9
 70
     1
102
RTVSPropertyOp10
 70
     1
102
RTVSPropertyOp11
 70
     1
102
RTVSPropertyOp12
 70
     1
102
RTVSPropertyOp13
 70
     1
102
RTVSPropertyOp14
 70
     1
102
RTVSPropertyOp15
 70
     1
102
RTVSPropertyOp16
 70
     1
102
RTVSPropertyOp17
 70
     1
102
RTVSPropertyOp18
 70
     1
102
RTVSPropertyOp19
 70
     1
102
RTVSPropertyOp20
 70
     1
102
RTVSPropertyOp21
 70
     1
102
RTVSPropertyOp22
 70
     1
102
RTVSPropertyOp23
 70
     1
102
RTVSPropertyOp24
 70
     1
102
RTVSPropertyOp25
 70
     1
102
RTVSPropertyOp26
 70
     1
102
RTVSPropertyOp27
 70
     1
102
RTVSPropertyOp28
 70
     1
102
RTVSPropertyOp29
 70
     1
102
RTVSPropertyOp30
 70
     1
102
RTVSPropertyOp31
 70
     1
102
RTVSPropertyOp32
 70
     1
102
RTVSPropertyOp33
 70
     1
102
RTVSPropertyOp34
 70
     1
102
RTVSPropertyOp35
 70
     1
102
RTVSPropertyOp36
 70
     1
102
RTVSPropertyOp37
 70
     1
102
RTVSPropertyOp38
 70
     1
102
RTVSPropertyOp39
 70
     1
102
RTVSPropertyOp40
 70
     1
102
RTVSPropertyOp41
 70
     1
102
RTVSPropertyOp42
 70
     1
102
RTVSPropertyOp43
 70
     1
102
RTVSPropertyOp44
 70
     1
102
RTVSPropertyOp45
 70
     1
102
RTVSPropertyOp46
 70
     1
102
RTVSPropertyOp47
 70
     1
102
RTVSPropertyOp48
 70
     1
102
RTVSPropertyOp49
 70
     1
102
RTVSPropertyOp50
 70
     1
102
RTVSPropertyOp51
 70
     0
102
RTVSPropertyOp52
 70
     0
102
RTVSPropertyOp53
 70
     1
102
RTVSPropertyOp54
 70
     1
102
RTVSPropertyOp55
 70
     1
102
RTVSPropertyOp56
 70
     1
102
RTVSPropertyOp57
 70
     1
102
RTVSPropertyOp58
 70
     1
102
RTVSPropertyOp59
 70
     1
102
RTVSPropertyOp60
 70
     1
102
RTVSPropertyOp61
 70
     1
102
RTVSPropertyOp62
 70
     1
  0
XRECORD
  5
DA7
102
{ACAD_REACTORS
330
DA6
102
}
330
DA6
100
AcDbXrecord
280
     1
102
RTVSPost2010Prop28
280
     0
102
RTVSPost2010PropOp28
 70
     1
102
RTVSPost2010Prop29
280
     1
102
RTVSPost2010PropOp29
 70
     1
102
RTVSPost2010Prop30
280
     1
102
RTVSPost2010PropOp30
 70
     1
102
RTVSPost2010Prop31
280
     0
102
RTVSPost2010PropOp31
 70
     1
102
RTVSPost2010Prop32
280
     0
102
RTVSPost2010PropOp32
 70
     1
102
RTVSPost2010Prop33
280
     0
102
RTVSPost2010PropOp33
 70
     1
102
RTVSPost2010Prop34
280
     0
102
RTVSPost2010PropOp34
 70
     1
102
RTVSPost2010Prop35
280
     0
102
RTVSPost2010PropOp35
 70
     1
102
RTVSPost2010Prop36
280
     0
102
RTVSPost2010PropOp36
 70
     1
102
RTVSPost2010Prop37
 90
       50
102
RTVSPost2010PropOp37
 70
     1
102
RTVSPost2010Prop38
140
0.0
102
RTVSPost2010PropOp38
 70
     1
102
RTVSPost2010Prop39
140
1.0
102
RTVSPost2010PropOp39
 70
     1
102
RTVSPost2010Prop40
 90
        0
102
RTVSPost2010PropOp40
 70
     1
102
RTVSPost2010Prop41ColorIndex
 90
       18
102
RTVSPost2010Prop41ColorRGB
 90
        0
102
RTVSPost2010PropOp41
 70
     1
102
RTVSPost2010Prop42
 90
       50
102
RTVSPost2010PropOp42
 70
     1
102
RTVSPost2010Prop43
 90
        3
102
RTVSPost2010PropOp43
 70
     1
102
RTVSPost2010Prop44ColorIndex
 90
        5
102
RTVSPost2010Prop44ColorRGB
 90
      255
102
RTVSPost2010PropOp44
 70
     1
102
RTVSPost2010Prop45
280
     0
102
RTVSPost2010PropOp45
 70
     1
102
RTVSPost2010Prop46
 90
       50
102
RTVSPost2010PropOp46
 70
     1
102
RTVSPost2010Prop47
 90
       50
102
RTVSPost2010PropOp47
 70
     1
102
RTVSPost2010Prop48
 90
       50
102
RTVSPost2010PropOp48
 70
     1
102
RTVSPost2010Prop49
280
     0
102
RTVSPost2010PropOp49
 70
     1
102
RTVSPost2010Prop50
 90
       50
102
RTVSPost2010PropOp50
 70
     1
102
RTVSPost2010Prop51ColorIndex
 90
      256
102
RTVSPost2010Prop51ColorRGB
 90
-16777216
102
RTVSPost2010PropOp51
 70
     0
102
RTVSPost2010Prop52
140
1.0
102
RTVSPost2010PropOp52
 70
     0
102
RTVSPost2010Prop53
 90
        2
102
RTVSPost2010PropOp53
 70
     1
102
RTVSPost2010Prop54
  1
strokes_ogs.tif
102
RTVSPost2010PropOp54
 70
     1
102
RTVSPost2010Prop55
280
     0
102
RTVSPost2010PropOp55
 70
     1
102
RTVSPost2010Prop56
140
1.0
102
RTVSPost2010PropOp56
 70
     1
102
RTVSPost2010Prop57
140
1.0
102
RTVSPost2010PropOp57
 70
     1
102
RTVSPropertyOp0
 70
     1
102
RTVSPropertyOp1
 70
     1
102
RTVSPropertyOp2
 70
     1
102
RTVSPropertyOp3
 70
     1
102
RTVSPropertyOp4
 70
     1
102
RTVSPropertyOp5
 70
     1
102
RTVSPropertyOp6
 70
     1
102
RTVSPropertyOp7
 70
     1
102
RTVSPropertyOp8
 70
     1
102
RTVSPropertyOp9
 70
     1
102
RTVSPropertyOp10
 70
     1
102
RTVSPropertyOp11
 70
     1
102
RTVSPropertyOp12
 70
     1
102
RTVSPropertyOp13
 70
     1
102
RTVSPropertyOp14
 70
     1
102
RTVSPropertyOp15
 70
     1
102
RTVSPropertyOp16
 70
     1
102
RTVSPropertyOp17
 70
     1
102
RTVSPropertyOp18
 70
     1
102
RTVSPropertyOp19
 70
     1
102
RTVSPropertyOp20
 70
     1
102
RTVSPropertyOp21
 70
     1
102
RTVSPropertyOp22
 70
     1
102
RTVSPropertyOp23
 70
     1
102
RTVSPropertyOp24
 70
     1
102
RTVSPropertyOp25
 70
     1
102
RTVSPropertyOp26
 70
     1
102
RTVSPropertyOp27
 70
     1
102
RTVSPropertyOp28
 70
     1
102
RTVSPropertyOp29
 70
     1
102
RTVSPropertyOp30
 70
     1
102
RTVSPropertyOp31
 70
     1
102
RTVSPropertyOp32
 70
     1
102
RTVSPropertyOp33
 70
     1
102
RTVSPropertyOp34
 70
     1
102
RTVSPropertyOp35
 70
     1
102
RTVSPropertyOp36
 70
     1
102
RTVSPropertyOp37
 70
     1
102
RTVSPropertyOp38
 70
     1
102
RTVSPropertyOp39
 70
     1
102
RTVSPropertyOp40
 70
     1
102
RTVSPropertyOp41
 70
     1
102
RTVSPropertyOp42
 70
     1
102
RTVSPropertyOp43
 70
     1
102
RTVSPropertyOp44
 70
     1
102
RTVSPropertyOp45
 70
     1
102
RTVSPropertyOp46
 70
     1
102
RTVSPropertyOp47
 70
     1
102
RTVSPropertyOp48
 70
     1
102
RTVSPropertyOp49
 70
     1
102
RTVSPropertyOp50
 70
     1
102
RTVSPropertyOp51
 70
     0
102
RTVSPropertyOp52
 70
     0
102
RTVSPropertyOp53
 70
     1
102
RTVSPropertyOp54
 70
     1
102
RTVSPropertyOp55
 70
     1
102
RTVSPropertyOp56
 70
     1
102
RTVSPropertyOp57
 70
     1
102
RTVSPropertyOp58
 70
     1
102
RTVSPropertyOp59
 70
     1
102
RTVSPropertyOp60
 70
     1
102
RTVSPropertyOp61
 70
     1
102
RTVSPropertyOp62
 70
     1
  0
XRECORD
  5
D9D
102
{ACAD_REACTORS
330
D9C
102
}
330
D9C
100
AcDbXrecord
280
     1
102
RTVSPost2010Prop28
280
     0
102
RTVSPost2010PropOp28
 70
     1
102
RTVSPost2010Prop29
280
     1
102
RTVSPost2010PropOp29
 70
     1
102
RTVSPost2010Prop30
280
     1
102
RTVSPost2010PropOp30
 70
     1
102
RTVSPost2010Prop31
280
     0
102
RTVSPost2010PropOp31
 70
     1
102
RTVSPost2010Prop32
280
     0
102
RTVSPost2010PropOp32
 70
     1
102
RTVSPost2010Prop33
280
     0
102
RTVSPost2010PropOp33
 70
     1
102
RTVSPost2010Prop34
280
     0
102
RTVSPost2010PropOp34
 70
     1
102
RTVSPost2010Prop35
280
     0
102
RTVSPost2010PropOp35
 70
     1
102
RTVSPost2010Prop36
280
     0
102
RTVSPost2010PropOp36
 70
     1
102
RTVSPost2010Prop37
 90
       50
102
RTVSPost2010PropOp37
 70
     1
102
RTVSPost2010Prop38
140
0.0
102
RTVSPost2010PropOp38
 70
     1
102
RTVSPost2010Prop39
140
1.0
102
RTVSPost2010PropOp39
 70
     1
102
RTVSPost2010Prop40
 90
        0
102
RTVSPost2010PropOp40
 70
     1
102
RTVSPost2010Prop41ColorIndex
 90
       18
102
RTVSPost2010Prop41ColorRGB
 90
        0
102
RTVSPost2010PropOp41
 70
     1
102
RTVSPost2010Prop42
 90
       50
102
RTVSPost2010PropOp42
 70
     1
102
RTVSPost2010Prop43
 90
        3
102
RTVSPost2010PropOp43
 70
     1
102
RTVSPost2010Prop44ColorIndex
 90
        5
102
RTVSPost2010Prop44ColorRGB
 90
      255
102
RTVSPost2010PropOp44
 70
     1
102
RTVSPost2010Prop45
280
     0
102
RTVSPost2010PropOp45
 70
     1
102
RTVSPost2010Prop46
 90
       50
102
RTVSPost2010PropOp46
 70
     1
102
RTVSPost2010Prop47
 90
       50
102
RTVSPost2010PropOp47
 70
     1
102
RTVSPost2010Prop48
 90
       50
102
RTVSPost2010PropOp48
 70
     1
102
RTVSPost2010Prop49
280
     0
102
RTVSPost2010PropOp49
 70
     1
102
RTVSPost2010Prop50
 90
       50
102
RTVSPost2010PropOp50
 70
     1
102
RTVSPost2010Prop51ColorIndex
 90
      256
102
RTVSPost2010Prop51ColorRGB
 90
-16777216
102
RTVSPost2010PropOp51
 70
     0
102
RTVSPost2010Prop52
140
1.0
102
RTVSPost2010PropOp52
 70
     0
102
RTVSPost2010Prop53
 90
        2
102
RTVSPost2010PropOp53
 70
     1
102
RTVSPost2010Prop54
  1
strokes_ogs.tif
102
RTVSPost2010PropOp54
 70
     1
102
RTVSPost2010Prop55
280
     0
102
RTVSPost2010PropOp55
 70
     1
102
RTVSPost2010Prop56
140
1.0
102
RTVSPost2010PropOp56
 70
     1
102
RTVSPost2010Prop57
140
1.0
102
RTVSPost2010PropOp57
 70
     1
102
RTVSPropertyOp0
 70
     1
102
RTVSPropertyOp1
 70
     1
102
RTVSPropertyOp2
 70
     1
102
RTVSPropertyOp3
 70
     1
102
RTVSPropertyOp4
 70
     1
102
RTVSPropertyOp5
 70
     1
102
RTVSPropertyOp6
 70
     1
102
RTVSPropertyOp7
 70
     1
102
RTVSPropertyOp8
 70
     1
102
RTVSPropertyOp9
 70
     1
102
RTVSPropertyOp10
 70
     1
102
RTVSPropertyOp11
 70
     1
102
RTVSPropertyOp12
 70
     1
102
RTVSPropertyOp13
 70
     1
102
RTVSPropertyOp14
 70
     1
102
RTVSPropertyOp15
 70
     1
102
RTVSPropertyOp16
 70
     1
102
RTVSPropertyOp17
 70
     1
102
RTVSPropertyOp18
 70
     1
102
RTVSPropertyOp19
 70
     1
102
RTVSPropertyOp20
 70
     1
102
RTVSPropertyOp21
 70
     1
102
RTVSPropertyOp22
 70
     1
102
RTVSPropertyOp23
 70
     1
102
RTVSPropertyOp24
 70
     1
102
RTVSPropertyOp25
 70
     1
102
RTVSPropertyOp26
 70
     1
102
RTVSPropertyOp27
 70
     1
102
RTVSPropertyOp28
 70
     1
102
RTVSPropertyOp29
 70
     1
102
RTVSPropertyOp30
 70
     1
102
RTVSPropertyOp31
 70
     1
102
RTVSPropertyOp32
 70
     1
102
RTVSPropertyOp33
 70
     1
102
RTVSPropertyOp34
 70
     1
102
RTVSPropertyOp35
 70
     1
102
RTVSPropertyOp36
 70
     1
102
RTVSPropertyOp37
 70
     1
102
RTVSPropertyOp38
 70
     1
102
RTVSPropertyOp39
 70
     1
102
RTVSPropertyOp40
 70
     1
102
RTVSPropertyOp41
 70
     1
102
RTVSPropertyOp42
 70
     1
102
RTVSPropertyOp43
 70
     1
102
RTVSPropertyOp44
 70
     1
102
RTVSPropertyOp45
 70
     1
102
RTVSPropertyOp46
 70
     1
102
RTVSPropertyOp47
 70
     1
102
RTVSPropertyOp48
 70
     1
102
RTVSPropertyOp49
 70
     1
102
RTVSPropertyOp50
 70
     1
102
RTVSPropertyOp51
 70
     0
102
RTVSPropertyOp52
 70
     0
102
RTVSPropertyOp53
 70
     1
102
RTVSPropertyOp54
 70
     1
102
RTVSPropertyOp55
 70
     1
102
RTVSPropertyOp56
 70
     1
102
RTVSPropertyOp57
 70
     1
102
RTVSPropertyOp58
 70
     1
102
RTVSPropertyOp59
 70
     1
102
RTVSPropertyOp60
 70
     1
102
RTVSPropertyOp61
 70
     1
102
RTVSPropertyOp62
 70
     1
  0
XRECORD
  5
D91
102
{ACAD_REACTORS
330
D90
102
}
330
D90
100
AcDbXrecord
280
     1
102
RTVSPost2010Prop28
280
     0
102
RTVSPost2010PropOp28
 70
     1
102
RTVSPost2010Prop29
280
     1
102
RTVSPost2010PropOp29
 70
     1
102
RTVSPost2010Prop30
280
     1
102
RTVSPost2010PropOp30
 70
     1
102
RTVSPost2010Prop31
280
     0
102
RTVSPost2010PropOp31
 70
     1
102
RTVSPost2010Prop32
280
     0
102
RTVSPost2010PropOp32
 70
     1
102
RTVSPost2010Prop33
280
     0
102
RTVSPost2010PropOp33
 70
     1
102
RTVSPost2010Prop34
280
     0
102
RTVSPost2010PropOp34
 70
     1
102
RTVSPost2010Prop35
280
     0
102
RTVSPost2010PropOp35
 70
     1
102
RTVSPost2010Prop36
280
     0
102
RTVSPost2010PropOp36
 70
     1
102
RTVSPost2010Prop37
 90
       50
102
RTVSPost2010PropOp37
 70
     1
102
RTVSPost2010Prop38
140
0.0
102
RTVSPost2010PropOp38
 70
     1
102
RTVSPost2010Prop39
140
1.0
102
RTVSPost2010PropOp39
 70
     1
102
RTVSPost2010Prop40
 90
        0
102
RTVSPost2010PropOp40
 70
     1
102
RTVSPost2010Prop41ColorIndex
 90
       18
102
RTVSPost2010Prop41ColorRGB
 90
        0
102
RTVSPost2010PropOp41
 70
     1
102
RTVSPost2010Prop42
 90
       50
102
RTVSPost2010PropOp42
 70
     1
102
RTVSPost2010Prop43
 90
        3
102
RTVSPost2010PropOp43
 70
     1
102
RTVSPost2010Prop44ColorIndex
 90
        5
102
RTVSPost2010Prop44ColorRGB
 90
      255
102
RTVSPost2010PropOp44
 70
     1
102
RTVSPost2010Prop45
280
     0
102
RTVSPost2010PropOp45
 70
     1
102
RTVSPost2010Prop46
 90
       50
102
RTVSPost2010PropOp46
 70
     1
102
RTVSPost2010Prop47
 90
       50
102
RTVSPost2010PropOp47
 70
     1
102
RTVSPost2010Prop48
 90
       50
102
RTVSPost2010PropOp48
 70
     1
102
RTVSPost2010Prop49
280
     0
102
RTVSPost2010PropOp49
 70
     1
102
RTVSPost2010Prop50
 90
       50
102
RTVSPost2010PropOp50
 70
     1
102
RTVSPost2010Prop51ColorIndex
 90
      256
102
RTVSPost2010Prop51ColorRGB
 90
-16777216
102
RTVSPost2010PropOp51
 70
     0
102
RTVSPost2010Prop52
140
1.0
102
RTVSPost2010PropOp52
 70
     0
102
RTVSPost2010Prop53
 90
        2
102
RTVSPost2010PropOp53
 70
     1
102
RTVSPost2010Prop54
  1
strokes_ogs.tif
102
RTVSPost2010PropOp54
 70
     1
102
RTVSPost2010Prop55
280
     0
102
RTVSPost2010PropOp55
 70
     1
102
RTVSPost2010Prop56
140
1.0
102
RTVSPost2010PropOp56
 70
     1
102
RTVSPost2010Prop57
140
1.0
102
RTVSPost2010PropOp57
 70
     1
102
RTVSPropertyOp0
 70
     1
102
RTVSPropertyOp1
 70
     1
102
RTVSPropertyOp2
 70
     1
102
RTVSPropertyOp3
 70
     1
102
RTVSPropertyOp4
 70
     1
102
RTVSPropertyOp5
 70
     1
102
RTVSPropertyOp6
 70
     1
102
RTVSPropertyOp7
 70
     1
102
RTVSPropertyOp8
 70
     1
102
RTVSPropertyOp9
 70
     1
102
RTVSPropertyOp10
 70
     1
102
RTVSPropertyOp11
 70
     1
102
RTVSPropertyOp12
 70
     1
102
RTVSPropertyOp13
 70
     1
102
RTVSPropertyOp14
 70
     1
102
RTVSPropertyOp15
 70
     1
102
RTVSPropertyOp16
 70
     1
102
RTVSPropertyOp17
 70
     1
102
RTVSPropertyOp18
 70
     1
102
RTVSPropertyOp19
 70
     1
102
RTVSPropertyOp20
 70
     1
102
RTVSPropertyOp21
 70
     1
102
RTVSPropertyOp22
 70
     1
102
RTVSPropertyOp23
 70
     1
102
RTVSPropertyOp24
 70
     1
102
RTVSPropertyOp25
 70
     1
102
RTVSPropertyOp26
 70
     1
102
RTVSPropertyOp27
 70
     1
102
RTVSPropertyOp28
 70
     1
102
RTVSPropertyOp29
 70
     1
102
RTVSPropertyOp30
 70
     1
102
RTVSPropertyOp31
 70
     1
102
RTVSPropertyOp32
 70
     1
102
RTVSPropertyOp33
 70
     1
102
RTVSPropertyOp34
 70
     1
102
RTVSPropertyOp35
 70
     1
102
RTVSPropertyOp36
 70
     1
102
RTVSPropertyOp37
 70
     1
102
RTVSPropertyOp38
 70
     1
102
RTVSPropertyOp39
 70
     1
102
RTVSPropertyOp40
 70
     1
102
RTVSPropertyOp41
 70
     1
102
RTVSPropertyOp42
 70
     1
102
RTVSPropertyOp43
 70
     1
102
RTVSPropertyOp44
 70
     1
102
RTVSPropertyOp45
 70
     1
102
RTVSPropertyOp46
 70
     1
102
RTVSPropertyOp47
 70
     1
102
RTVSPropertyOp48
 70
     1
102
RTVSPropertyOp49
 70
     1
102
RTVSPropertyOp50
 70
     1
102
RTVSPropertyOp51
 70
     0
102
RTVSPropertyOp52
 70
     0
102
RTVSPropertyOp53
 70
     1
102
RTVSPropertyOp54
 70
     1
102
RTVSPropertyOp55
 70
     1
102
RTVSPropertyOp56
 70
     1
102
RTVSPropertyOp57
 70
     1
102
RTVSPropertyOp58
 70
     1
102
RTVSPropertyOp59
 70
     1
102
RTVSPropertyOp60
 70
     1
102
RTVSPropertyOp61
 70
     1
102
RTVSPropertyOp62
 70
     1
  0
XRECORD
  5
DA9
102
{ACAD_REACTORS
330
DA8
102
}
330
DA8
100
AcDbXrecord
280
     1
102
RTVSPost2010Prop28
280
     0
102
RTVSPost2010PropOp28
 70
     1
102
RTVSPost2010Prop29
280
     1
102
RTVSPost2010PropOp29
 70
     1
102
RTVSPost2010Prop30
280
     1
102
RTVSPost2010PropOp30
 70
     1
102
RTVSPost2010Prop31
280
     0
102
RTVSPost2010PropOp31
 70
     1
102
RTVSPost2010Prop32
280
     0
102
RTVSPost2010PropOp32
 70
     1
102
RTVSPost2010Prop33
280
     0
102
RTVSPost2010PropOp33
 70
     1
102
RTVSPost2010Prop34
280
     0
102
RTVSPost2010PropOp34
 70
     1
102
RTVSPost2010Prop35
280
     0
102
RTVSPost2010PropOp35
 70
     1
102
RTVSPost2010Prop36
280
     0
102
RTVSPost2010PropOp36
 70
     1
102
RTVSPost2010Prop37
 90
       50
102
RTVSPost2010PropOp37
 70
     1
102
RTVSPost2010Prop38
140
0.0
102
RTVSPost2010PropOp38
 70
     1
102
RTVSPost2010Prop39
140
1.0
102
RTVSPost2010PropOp39
 70
     1
102
RTVSPost2010Prop40
 90
        0
102
RTVSPost2010PropOp40
 70
     1
102
RTVSPost2010Prop41ColorIndex
 90
       18
102
RTVSPost2010Prop41ColorRGB
 90
        0
102
RTVSPost2010PropOp41
 70
     1
102
RTVSPost2010Prop42
 90
       50
102
RTVSPost2010PropOp42
 70
     1
102
RTVSPost2010Prop43
 90
        3
102
RTVSPost2010PropOp43
 70
     1
102
RTVSPost2010Prop44ColorIndex
 90
        5
102
RTVSPost2010Prop44ColorRGB
 90
      255
102
RTVSPost2010PropOp44
 70
     1
102
RTVSPost2010Prop45
280
     0
102
RTVSPost2010PropOp45
 70
     1
102
RTVSPost2010Prop46
 90
       50
102
RTVSPost2010PropOp46
 70
     1
102
RTVSPost2010Prop47
 90
       50
102
RTVSPost2010PropOp47
 70
     1
102
RTVSPost2010Prop48
 90
       50
102
RTVSPost2010PropOp48
 70
     1
102
RTVSPost2010Prop49
280
     0
102
RTVSPost2010PropOp49
 70
     1
102
RTVSPost2010Prop50
 90
       50
102
RTVSPost2010PropOp50
 70
     1
102
RTVSPost2010Prop51ColorIndex
 90
      256
102
RTVSPost2010Prop51ColorRGB
 90
-16777216
102
RTVSPost2010PropOp51
 70
     0
102
RTVSPost2010Prop52
140
1.0
102
RTVSPost2010PropOp52
 70
     0
102
RTVSPost2010Prop53
 90
        2
102
RTVSPost2010PropOp53
 70
     1
102
RTVSPost2010Prop54
  1
strokes_ogs.tif
102
RTVSPost2010PropOp54
 70
     1
102
RTVSPost2010Prop55
280
     0
102
RTVSPost2010PropOp55
 70
     1
102
RTVSPost2010Prop56
140
1.0
102
RTVSPost2010PropOp56
 70
     1
102
RTVSPost2010Prop57
140
1.0
102
RTVSPost2010PropOp57
 70
     1
102
RTVSPropertyOp0
 70
     1
102
RTVSPropertyOp1
 70
     1
102
RTVSPropertyOp2
 70
     1
102
RTVSPropertyOp3
 70
     1
102
RTVSPropertyOp4
 70
     1
102
RTVSPropertyOp5
 70
     1
102
RTVSPropertyOp6
 70
     1
102
RTVSPropertyOp7
 70
     1
102
RTVSPropertyOp8
 70
     1
102
RTVSPropertyOp9
 70
     1
102
RTVSPropertyOp10
 70
     1
102
RTVSPropertyOp11
 70
     1
102
RTVSPropertyOp12
 70
     1
102
RTVSPropertyOp13
 70
     1
102
RTVSPropertyOp14
 70
     1
102
RTVSPropertyOp15
 70
     1
102
RTVSPropertyOp16
 70
     1
102
RTVSPropertyOp17
 70
     1
102
RTVSPropertyOp18
 70
     1
102
RTVSPropertyOp19
 70
     1
102
RTVSPropertyOp20
 70
     1
102
RTVSPropertyOp21
 70
     1
102
RTVSPropertyOp22
 70
     1
102
RTVSPropertyOp23
 70
     1
102
RTVSPropertyOp24
 70
     1
102
RTVSPropertyOp25
 70
     1
102
RTVSPropertyOp26
 70
     1
102
RTVSPropertyOp27
 70
     1
102
RTVSPropertyOp28
 70
     1
102
RTVSPropertyOp29
 70
     1
102
RTVSPropertyOp30
 70
     1
102
RTVSPropertyOp31
 70
     1
102
RTVSPropertyOp32
 70
     1
102
RTVSPropertyOp33
 70
     1
102
RTVSPropertyOp34
 70
     1
102
RTVSPropertyOp35
 70
     1
102
RTVSPropertyOp36
 70
     1
102
RTVSPropertyOp37
 70
     1
102
RTVSPropertyOp38
 70
     1
102
RTVSPropertyOp39
 70
     1
102
RTVSPropertyOp40
 70
     1
102
RTVSPropertyOp41
 70
     1
102
RTVSPropertyOp42
 70
     1
102
RTVSPropertyOp43
 70
     1
102
RTVSPropertyOp44
 70
     1
102
RTVSPropertyOp45
 70
     1
102
RTVSPropertyOp46
 70
     1
102
RTVSPropertyOp47
 70
     1
102
RTVSPropertyOp48
 70
     1
102
RTVSPropertyOp49
 70
     1
102
RTVSPropertyOp50
 70
     1
102
RTVSPropertyOp51
 70
     0
102
RTVSPropertyOp52
 70
     0
102
RTVSPropertyOp53
 70
     1
102
RTVSPropertyOp54
 70
     1
102
RTVSPropertyOp55
 70
     1
102
RTVSPropertyOp56
 70
     1
102
RTVSPropertyOp57
 70
     1
102
RTVSPropertyOp58
 70
     1
102
RTVSPropertyOp59
 70
     1
102
RTVSPropertyOp60
 70
     1
102
RTVSPropertyOp61
 70
     1
102
RTVSPropertyOp62
 70
     1
  0
ENDSEC
  0
EOF
