  0
SECTION
  2
HEADER
  9
$ACADVER
  1
AC1015
  9
$ACADMAINTVER
 70
    20
  9
$DWGCODEPAGE
  3
ANSI_932
  9
$INSBASE
 10
0.0
 20
0.0
 30
0.0
  9
$EXTMIN
 10
436.9177250401008
 20
172.5852539829004
 30
-0.0015258207003583
  9
$EXTMAX
 10
1279.020622737593
 20
767.9856240842768
 30
0.0000000349246037
  9
$LIMMIN
 10
0.0
 20
0.0
  9
$LIMMAX
 10
0.0
 20
0.0
  9
$ORTHOMODE
 70
     1
  9
$REGENMODE
 70
     1
  9
$FILLMODE
 70
     1
  9
$QTEXTMODE
 70
     0
  9
$MIRRTEXT
 70
     1
  9
$LTSCALE
 40
1.0
  9
$ATTMODE
 70
     1
  9
$TEXTSIZE
 40
0.0
  9
$TRACEWID
 40
0.05
  9
$TEXTSTYLE
  7
Standard
  9
$CLAYER
  8
0
  9
$CELTYPE
  6
Continuous
  9
$CECOLOR
 62
   256
  9
$CELTSCALE
 40
1.0
  9
$DISPSILH
 70
     0
  9
$DIMSCALE
 40
1.0
  9
$DIMASZ
 40
0.18
  9
$DIMEXO
 40
0.0625
  9
$DIMDLI
 40
0.38
  9
$DIMRND
 40
0.0
  9
$DIMDLE
 40
0.0
  9
$DIMEXE
 40
0.18
  9
$DIMTP
 40
0.0
  9
$DIMTM
 40
0.0
  9
$DIMTXT
 40
0.18
  9
$DIMCEN
 40
0.09
  9
$DIMTSZ
 40
0.0
  9
$DIMTOL
 70
     0
  9
$DIMLIM
 70
     0
  9
$DIMTIH
 70
     1
  9
$DIMTOH
 70
     1
  9
$DIMSE1
 70
     0
  9
$DIMSE2
 70
     0
  9
$DIMTAD
 70
     0
  9
$DIMZIN
 70
     0
  9
$DIMBLK
  1

  9
$DIMASO
 70
     1
  9
$DIMSHO
 70
     1
  9
$DIMPOST
  1

  9
$DIMAPOST
  1

  9
$DIMALT
 70
     0
  9
$DIMALTD
 70
     2
  9
$DIMALTF
 40
25.4
  9
$DIMLFAC
 40
1.0
  9
$DIMTOFL
 70
     0
  9
$DIMTVP
 40
0.0
  9
$DIMTIX
 70
     0
  9
$DIMSOXD
 70
     0
  9
$DIMSAH
 70
     0
  9
$DIMBLK1
  1

  9
$DIMBLK2
  1

  9
$DIMSTYLE
  2
Standard
  9
$DIMCLRD
 70
     0
  9
$DIMCLRE
 70
     0
  9
$DIMCLRT
 70
     0
  9
$DIMTFAC
 40
1.0
  9
$DIMGAP
 40
0.09
  9
$DIMJUST
 70
     0
  9
$DIMSD1
 70
     0
  9
$DIMSD2
 70
     0
  9
$DIMTOLJ
 70
     1
  9
$DIMTZIN
 70
     0
  9
$DIMALTZ
 70
     0
  9
$DIMALTTZ
 70
     0
  9
$DIMUPT
 70
     0
  9
$DIMDEC
 70
     4
  9
$DIMTDEC
 70
     4
  9
$DIMALTU
 70
     2
  9
$DIMALTTD
 70
     2
  9
$DIMTXSTY
  7
Standard
  9
$DIMAUNIT
 70
     0
  9
$DIMADEC
 70
     0
  9
$DIMALTRND
 40
0.0
  9
$DIMAZIN
 70
     0
  9
$DIMDSEP
 70
     0
  9
$DIMATFIT
 70
     3
  9
$DIMFRAC
 70
     0
  9
$DIMLDRBLK
  1

  9
$DIMLUNIT
 70
     2
  9
$DIMLWD
 70
     0
  9
$DIMLWE
 70
     0
  9
$DIMTMOVE
 70
     0
  9
$LUNITS
 70
     2
  9
$LUPREC
 70
     4
  9
$SKETCHINC
 40
0.1
  9
$FILLETRAD
 40
0.0
  9
$AUNITS
 70
     0
  9
$AUPREC
 70
     0
  9
$MENU
  1
acad
  9
$ELEVATION
 40
0.0
  9
$PELEVATION
 40
0.0
  9
$THICKNESS
 40
0.0
  9
$LIMCHECK
 70
     0
  9
$CHAMFERA
 40
0.0
  9
$CHAMFERB
 40
0.0
  9
$CHAMFERC
 40
0.0
  9
$CHAMFERD
 40
0.0
  9
$SKPOLY
 70
     0
  9
$TDCREATE
 40
2456367.448112697
  9
$TDUCREATE
 40
2456367.073112697
  9
$TDUPDATE
 40
2456386.720337812
  9
$TDUUPDATE
 40
2456386.345337812
  9
$TDINDWG
 40
0.0030494213
  9
$TDUSRTIMER
 40
0.0030487037
  9
$USRTIMER
 70
     1
  9
$ANGBASE
 50
0.0
  9
$ANGDIR
 70
     0
  9
$PDMODE
 70
     3
  9
$PDSIZE
 40
-1.0
  9
$PLINEWID
 40
0.0
  9
$SPLFRAME
 70
     0
  9
$SPLINETYPE
 70
     6
  9
$SPLINESEGS
 70
     8
  9
$HANDSEED
  5
9F5
  9
$SURFTAB1
 70
     6
  9
$SURFTAB2
 70
     6
  9
$SURFTYPE
 70
     6
  9
$SURFU
 70
     6
  9
$SURFV
 70
     6
  9
$UCSBASE
  2

  9
$UCSNAME
  2

  9
$UCSORG
 10
0.0
 20
0.0
 30
0.0
  9
$UCSXDIR
 10
1.0
 20
0.0
 30
0.0
  9
$UCSYDIR
 10
0.0
 20
1.0
 30
0.0
  9
$UCSORTHOREF
  2

  9
$UCSORTHOVIEW
 70
     0
  9
$UCSORGTOP
 10
0.0
 20
0.0
 30
0.0
  9
$UCSORGBOTTOM
 10
0.0
 20
0.0
 30
0.0
  9
$UCSORGLEFT
 10
0.0
 20
0.0
 30
0.0
  9
$UCSORGRIGHT
 10
0.0
 20
0.0
 30
0.0
  9
$UCSORGFRONT
 10
0.0
 20
0.0
 30
0.0
  9
$UCSORGBACK
 10
0.0
 20
0.0
 30
0.0
  9
$PUCSBASE
  2

  9
$PUCSNAME
  2

  9
$PUCSORG
 10
0.0
 20
0.0
 30
0.0
  9
$PUCSXDIR
 10
1.0
 20
0.0
 30
0.0
  9
$PUCSYDIR
 10
0.0
 20
1.0
 30
0.0
  9
$PUCSORTHOREF
  2

  9
$PUCSORTHOVIEW
 70
     0
  9
$PUCSORGTOP
 10
0.0
 20
0.0
 30
0.0
  9
$PUCSORGBOTTOM
 10
0.0
 20
0.0
 30
0.0
  9
$PUCSORGLEFT
 10
0.0
 20
0.0
 30
0.0
  9
$PUCSORGRIGHT
 10
0.0
 20
0.0
 30
0.0
  9
$PUCSORGFRONT
 10
0.0
 20
0.0
 30
0.0
  9
$PUCSORGBACK
 10
0.0
 20
0.0
 30
0.0
  9
$USERI1
 70
     0
  9
$USERI2
 70
     0
  9
$USERI3
 70
     0
  9
$USERI4
 70
     0
  9
$USERI5
 70
     0
  9
$USERR1
 40
0.0
  9
$USERR2
 40
0.0
  9
$USERR3
 40
0.0
  9
$USERR4
 40
0.0
  9
$USERR5
 40
0.0
  9
$WORLDVIEW
 70
     1
  9
$SHADEDGE
 70
     3
  9
$SHADEDIF
 70
    70
  9
$TILEMODE
 70
     1
  9
$MAXACTVP
 70
    16
  9
$PINSBASE
 10
0.0
 20
0.0
 30
0.0
  9
$PLIMCHECK
 70
     0
  9
$PEXTMIN
 10
1.000000000000000E+20
 20
1.000000000000000E+20
 30
1.000000000000000E+20
  9
$PEXTMAX
 10
-1.000000000000000E+20
 20
-1.000000000000000E+20
 30
-1.000000000000000E+20
  9
$PLIMMIN
 10
0.0
 20
0.0
  9
$PLIMMAX
 10
12.0
 20
9.0
  9
$UNITMODE
 70
     0
  9
$VISRETAIN
 70
     0
  9
$PLINEGEN
 70
     1
  9
$PSLTSCALE
 70
     0
  9
$TREEDEPTH
 70
  3020
  9
$CMLSTYLE
  2
Standard
  9
$CMLJUST
 70
     0
  9
$CMLSCALE
 40
1.0
  9
$PROXYGRAPHICS
 70
     0
  9
$MEASUREMENT
 70
     0
  9
$CELWEIGHT
370
     0
  9
$ENDCAPS
280
     0
  9
$JOINSTYLE
280
     0
  9
$LWDISPLAY
290
     0
  9
$INSUNITS
 70
     0
  9
$HYPERLINKBASE
  1

  9
$STYLESHEET
  1
MONOCHROME.STB
  9
$XEDIT
290
     1
  9
$CEPSNTYPE
380
     0
  9
$PSTYLEMODE
290
     0
  9
$FINGERPRINTGUID
  2

  9
$VERSIONGUID
  2
{4281EFC3-DD3A-4146-AF5B-94861862A9EA}
  9
$EXTNAMES
290
     1
  9
$PSVPSCALE
 40
0.0
  9
$OLESTARTUP
290
     0
  0
ENDSEC
  0
SECTION
  2
CLASSES
  0
CLASS
  1
IMAGE
  2
AcDbRasterImage
  3
ISM
 90
    32895
280
     0
281
     1
  0
CLASS
  1
DICTIONARYVAR
  2
AcDbDictionaryVar
  3
ObjectDBX Classes
 90
        0
280
     0
281
     0
  0
CLASS
  1
RASTERVARIABLES
  2
AcDbRasterVariables
  3
ISM
 90
    32768
280
     0
281
     0
  0
CLASS
  1
IMAGEDEF
  2
AcDbRasterImageDef
  3
ISM
 90
    32768
280
     0
281
     0
  0
CLASS
  1
IMAGEDEF_REACTOR
  2
AcDbRasterImageDefReactor
  3
ISM
 90
    32769
280
     0
281
     0
  0
CLASS
  1
IDBUFFER
  2
AcDbIdBuffer
  3
ObjectDBX Classes
 90
    32768
280
     0
281
     0
  0
CLASS
  1
SPATIAL_FILTER
  2
AcDbSpatialFilter
  3
ObjectDBX Classes
 90
    32768
280
     0
281
     0
  0
CLASS
  1
SORTENTSTABLE
  2
AcDbSortentsTable
  3
ObjectDBX Classes
 90
    32768
280
     0
281
     0
  0
CLASS
  1
LAYER_INDEX
  2
AcDbLayerIndex
  3
ObjectDBX Classes
 90
    32768
280
     0
281
     0
  0
CLASS
  1
SPATIAL_INDEX
  2
AcDbSpatialIndex
  3
ObjectDBX Classes
 90
    32768
280
     0
281
     0
  0
CLASS
  1
OBJECT_PTR
  2
CAseDLPNTableRecord
  3
ASE-LPNTableRecord
 90
    32769
280
     0
281
     0
  0
CLASS
  1
LAYOUT
  2
AcDbLayout
  3
ObjectDBX Classes
 90
        0
280
     0
281
     0
  0
CLASS
  1
PLOTSETTINGS
  2
AcDbPlotSettings
  3
ObjectDBX Classes
 90
    32768
280
     0
281
     0
  0
CLASS
  1
ACDBDICTIONARYWDFLT
  2
AcDbDictionaryWithDefault
  3
ObjectDBX Classes
 90
        0
280
     0
281
     0
  0
CLASS
  1
ACDBPLACEHOLDER
  2
AcDbPlaceHolder
  3
ObjectDBX Classes
 90
        0
280
     0
281
     0
  0
CLASS
  1
VBA_PROJECT
  2
AcDbVbaProject
  3
acad
 90
    32768
280
     0
281
     0
  0
CLASS
  1
WIPEOUT
  2
AcDbWipeout
  3
"WipeOut|Product Desc: Object Enabler for WipeOut entity^I^I^I^I^I^I|Company: Autodesk, Inc.^I^I^I^I^I^I|WEB Address: www.autodesk.com"
 90
    32895
280
     0
281
     1
  0
CLASS
  1
WIPEOUTVARIABLES
  2
AcDbWipeoutVariables
  3
"WipeOut|Product Desc:     WipeOut Dbx Application|Company:          Autodesk, Inc.|WEB Address:      www.autodesk.com"
 90
        0
280
     0
281
     0
  0
CLASS
  1
RTEXT
  2
RText
  3
RText|AutoCAD Express Tool|expresstools@autodesk.com
 90
    32768
280
     0
281
     1
  0
CLASS
  1
ARCALIGNEDTEXT
  2
AcDbArcAlignedText
  3
ATEXT|AutoCAD Express Tool|expresstools@autodesk.com
 90
    32768
280
     0
281
     1
  0
ENDSEC
  0
SECTION
  2
TABLES
  0
TABLE
  2
VPORT
  5
7
330
0
100
AcDbSymbolTable
 70
     2
  0
VPORT
  5
9ED
330
7
100
AcDbSymbolTableRecord
100
AcDbViewportTableRecord
  2
*Active
 70
     0
 10
0.0
 20
0.0
 11
1.0
 21
1.0
 12
857.9691738888472
 22
470.2854390335886
 13
0.0
 23
0.0
 14
1.0
 24
1.0
 15
0.0
 25
0.0
 16
0.0
 26
0.0
 36
1.0
 17
0.0
 27
0.0
 37
0.0
 40
600.7402837345725
 41
2.724550898203592
 42
50.0
 43
0.0
 44
0.0
 50
0.0
 51
0.0
 71
     0
 72
   100
 73
     1
 74
     1
 75
     0
 76
     0
 77
     0
 78
     0
281
     0
 65
     0
110
0.0
120
0.0
130
0.0
111
1.0
121
0.0
131
0.0
112
0.0
122
1.0
132
0.0
 79
     0
146
0.0
  0
ENDTAB
  0
TABLE
  2
LTYPE
  5
4
330
0
100
AcDbSymbolTable
 70
    12
  0
LTYPE
  5
11
330
4
100
AcDbSymbolTableRecord
100
AcDbLinetypeTableRecord
  2
ByBlock
 70
     0
  3

 72
    65
 73
     0
 40
0.0
  0
LTYPE
  5
12
330
4
100
AcDbSymbolTableRecord
100
AcDbLinetypeTableRecord
  2
ByLayer
 70
     0
  3

 72
    65
 73
     0
 40
0.0
  0
LTYPE
  5
13
330
4
100
AcDbSymbolTableRecord
100
AcDbLinetypeTableRecord
  2
Continuous
 70
     0
  3
Solid line
 72
    65
 73
     0
 40
0.0
  0
LTYPE
  5
24
330
4
100
AcDbSymbolTableRecord
100
AcDbLinetypeTableRecord
  2
DOT
 70
     0
  3
. . . . . . . . 
 72
    65
 73
     2
 40
1.0
 49
0.0
 74
     0
 49
-1.0
 74
     0
  0
LTYPE
  5
25
330
4
100
AcDbSymbolTableRecord
100
AcDbLinetypeTableRecord
  2
DASHED
 70
     0
  3
___  ___  ___  ___  
 72
    65
 73
     2
 40
4.0
 49
3.0
 74
     0
 49
-1.0
 74
     0
  0
LTYPE
  5
26
330
4
100
AcDbSymbolTableRecord
100
AcDbLinetypeTableRecord
  2
HIDDEN
 70
     0
  3
__ __ __ __ 
 72
    65
 73
     2
 40
3.0
 49
2.0
 74
     0
 49
-1.0
 74
     0
  0
LTYPE
  5
27
330
4
100
AcDbSymbolTableRecord
100
AcDbLinetypeTableRecord
  2
STITCH
 70
     0
  3
_ _ _ _ 
 72
    65
 73
     2
 40
2.0
 49
1.0
 74
     0
 49
-1.0
 74
     0
  0
LTYPE
  5
28
330
4
100
AcDbSymbolTableRecord
100
AcDbLinetypeTableRecord
  2
CENTER
 70
     0
  3
______  __  ______  __  
 72
    65
 73
     4
 40
43.0
 49
40.0
 74
     0
 49
-1.0
 74
     0
 49
1.0
 74
     0
 49
-1.0
 74
     0
  0
LTYPE
  5
29
330
4
100
AcDbSymbolTableRecord
100
AcDbLinetypeTableRecord
  2
DASHDOT
 70
     0
  3
____ . ____ . 
 72
    65
 73
     4
 40
32.0
 49
30.0
 74
     0
 49
-1.0
 74
     0
 49
0.0
 74
     0
 49
-1.0
 74
     0
  0
LTYPE
  5
2A
330
4
100
AcDbSymbolTableRecord
100
AcDbLinetypeTableRecord
  2
BORDER
 70
     0
  3
__ . __ . 
 72
    65
 73
     4
 40
22.0
 49
20.0
 74
     0
 49
-1.0
 74
     0
 49
0.0
 74
     0
 49
-1.0
 74
     0
  0
LTYPE
  5
2B
330
4
100
AcDbSymbolTableRecord
100
AcDbLinetypeTableRecord
  2
CUTTING
 70
     0
  3
________   ___   ___   
 72
    65
 73
     6
 40
45.0
 49
40.0
 74
     0
 49
-1.0
 74
     0
 49
1.0
 74
     0
 49
-1.0
 74
     0
 49
1.0
 74
     0
 49
-1.0
 74
     0
  0
LTYPE
  5
2C
330
4
100
AcDbSymbolTableRecord
100
AcDbLinetypeTableRecord
  2
PHANTOM
 70
     0
  3
______  __  __  
 72
    65
 73
     6
 40
35.0
 49
30.0
 74
     0
 49
-1.0
 74
     0
 49
1.0
 74
     0
 49
-1.0
 74
     0
 49
1.0
 74
     0
 49
-1.0
 74
     0
  0
LTYPE
  5
2D
330
4
100
AcDbSymbolTableRecord
100
AcDbLinetypeTableRecord
  2
DIVIDE
 70
     0
  3
____ . . ____ . . 
 72
    65
 73
     6
 40
23.0
 49
20.0
 74
     0
 49
-1.0
 74
     0
 49
0.0
 74
     0
 49
-1.0
 74
     0
 49
0.0
 74
     0
 49
-1.0
 74
     0
  0
LTYPE
  5
2C2
330
4
100
AcDbSymbolTableRecord
100
AcDbLinetypeTableRecord
  2
CENTER2
 70
     0
  3

 72
    65
 73
     4
 40
23.0
 49
20.0
 74
     0
 49
-1.0
 74
     0
 49
1.0
 74
     0
 49
-1.0
 74
     0
  0
ENDTAB
  0
TABLE
  2
LAYER
  5
2
102
{ACAD_XDICTIONARY
360
2C6
102
}
330
0
100
AcDbSymbolTable
 70
     6
  0
LAYER
  5
14
330
2
100
AcDbSymbolTableRecord
100
AcDbLayerTableRecord
  2
0
 70
     0
 62
     7
  6
Continuous
370
    -3
390
1D
  0
LAYER
  5
3D
330
2
100
AcDbSymbolTableRecord
100
AcDbLayerTableRecord
  2
寸法線
 70
     0
 62
     7
  6
Continuous
370
    -3
390
1F
  0
LAYER
  5
92
330
2
100
AcDbSymbolTableRecord
100
AcDbLayerTableRecord
  2
ﾚｲﾔｰ1
 70
     0
 62
     7
  6
Continuous
370
    -3
390
1F
  0
LAYER
  5
1EA
330
2
100
AcDbSymbolTableRecord
100
AcDbLayerTableRecord
  2
Layer1
 70
     0
 62
     7
  6
Continuous
370
    -3
390
1F
  0
LAYER
  5
2C3
330
2
100
AcDbSymbolTableRecord
100
AcDbLayerTableRecord
  2
DEFPOINTS
 70
     0
 62
     7
  6
Continuous
290
     0
370
    -3
390
1D
  0
LAYER
  5
2C4
330
2
100
AcDbSymbolTableRecord
100
AcDbLayerTableRecord
  2
____1
 70
     0
 62
     3
  6
CENTER2
370
    -3
390
1D
  0
ENDTAB
  0
TABLE
  2
STYLE
  5
3
330
0
100
AcDbSymbolTable
 70
     2
  0
STYLE
  5
17
330
3
100
AcDbSymbolTableRecord
100
AcDbTextStyleTableRecord
  2
Standard
 70
     0
 40
0.0
 41
1.0
 50
0.0
 71
     0
 42
0.0
  3
txt
  4
extfont
  0
STYLE
  5
2C5
330
3
100
AcDbSymbolTableRecord
100
AcDbTextStyleTableRecord
  2
STYLE1
 70
     0
 40
0.0
 41
1.0
 50
0.0
 71
     0
 42
0.35
  3
ＭＳ ゴシック
  4

  0
ENDTAB
  0
TABLE
  2
VIEW
  5
5
330
0
100
AcDbSymbolTable
 70
     0
  0
ENDTAB
  0
TABLE
  2
UCS
  5
6
330
0
100
AcDbSymbolTable
 70
     0
  0
ENDTAB
  0
TABLE
  2
APPID
  5
8
330
0
100
AcDbSymbolTable
 70
     2
  0
APPID
  5
16
330
8
100
AcDbSymbolTableRecord
100
AcDbRegAppTableRecord
  2
ACAD
 70
     0
  0
APPID
  5
2B9
330
8
100
AcDbSymbolTableRecord
100
AcDbRegAppTableRecord
  2
DCO15
 70
     0
  0
ENDTAB
  0
TABLE
  2
DIMSTYLE
  5
9
330
0
100
AcDbSymbolTable
 70
     4
100
AcDbDimStyleTable
 71
     0
  0
DIMSTYLE
105
18
330
9
100
AcDbSymbolTableRecord
100
AcDbDimStyleTableRecord
  2
Standard
 70
     0
340
17
  0
DIMSTYLE
105
2E
330
9
100
AcDbSymbolTableRecord
100
AcDbDimStyleTableRecord
  2
VELDIM0
 70
     0
 41
6.0
 44
0.5
 46
3.0
 73
     0
 74
     0
 78
     8
140
5.9972220421
271
     3
340
17
  0
DIMSTYLE
105
3F
330
9
100
AcDbSymbolTableRecord
100
AcDbDimStyleTableRecord
  2
VELDIM1
 70
     0
 41
6.0
 44
1.25
 46
5.0
 73
     0
 74
     0
 78
     8
140
5.9972220421
271
     3
340
17
  0
DIMSTYLE
105
C8
330
9
100
AcDbSymbolTableRecord
100
AcDbDimStyleTableRecord
  2
VELDIM2
 70
     0
 41
6.0
 44
1.25
 46
5.0
 73
     0
 74
     0
 78
     8
140
5.9972220421
271
     3
340
17
  0
ENDTAB
  0
TABLE
  2
BLOCK_RECORD
  5
1
330
0
100
AcDbSymbolTable
 70
     2
  0
BLOCK_RECORD
  5
A
330
1
100
AcDbSymbolTableRecord
100
AcDbBlockTableRecord
  2
*MODEL_SPACE
340
20
  0
BLOCK_RECORD
  5
B
330
1
100
AcDbSymbolTableRecord
100
AcDbBlockTableRecord
  2
*PAPER_SPACE
340
21
  0
BLOCK_RECORD
  5
211
330
1
100
AcDbSymbolTableRecord
100
AcDbBlockTableRecord
  2
CLUMP0
340
0
  0
BLOCK_RECORD
  5
28A
330
1
100
AcDbSymbolTableRecord
100
AcDbBlockTableRecord
  2
CLUMP1
340
0
  0
ENDTAB
  0
ENDSEC
  0
SECTION
  2
BLOCKS
  0
BLOCK
  5
D
330
A
100
AcDbEntity
  8
0
100
AcDbBlockBegin
  2
*MODEL_SPACE
 70
     0
 10
0.0
 20
0.0
 30
0.0
  3
*MODEL_SPACE
  1

  0
ENDBLK
  5
E
330
A
100
AcDbEntity
  8
0
100
AcDbBlockEnd
  0
BLOCK
  5
F
330
B
100
AcDbEntity
 67
     1
  8
0
100
AcDbBlockBegin
  2
*PAPER_SPACE
 70
     0
 10
0.0
 20
0.0
 30
0.0
  3
*PAPER_SPACE
  1

  0
ENDBLK
  5
10
330
B
100
AcDbEntity
 67
     1
  8
0
100
AcDbBlockEnd
  0
BLOCK
  5
213
330
211
100
AcDbEntity
  8
0
100
AcDbBlockBegin
  2
CLUMP0
 70
     0
 10
0.0
 20
0.0
 30
0.0
  3
CLUMP0
  1

  0
ARC
  5
214
330
211
100
AcDbEntity
  8
Layer1
 62
     5
370
    18
100
AcDbCircle
 10
507.5795318794
 20
-989.7775913695999
 30
0.0
 40
1000.0
100
AcDbArc
 50
51.001745706
 51
75.07556604760001
  0
ARC
  5
215
330
211
100
AcDbEntity
  8
Layer1
 62
     5
370
    18
100
AcDbCircle
 10
507.5795318794
 20
-989.7775913695999
 30
0.0
 40
1032.0
100
AcDbArc
 50
52.4261399116
 51
70.3936859647
  0
ARC
  5
216
330
211
100
AcDbEntity
  8
Layer1
 62
     5
370
    18
100
AcDbCircle
 10
765.8970501914999
 20
-20.6124559396
 30
0.0
 40
3.0
100
AcDbArc
 50
187.4622169762
 51
255.0755660475999
  0
LINE
  5
217
330
211
100
AcDbEntity
  8
Layer1
 62
     5
370
    18
100
AcDbLine
 10
762.9224580322
 20
-21.0020730415
 30
0.0
 11
762.9224580322
 21
-17.6124559396
 31
0.0
  0
LINE
  5
218
330
211
100
AcDbEntity
  8
Layer1
 62
     5
370
    18
100
AcDbLine
 10
762.9224580322
 20
-17.6124559396
 30
0.0
 11
853.8726872469
 21
-17.6124559396
 31
0.0
  0
LINE
  5
219
330
211
100
AcDbEntity
  8
Layer1
 62
     5
370
    18
100
AcDbLine
 10
1136.8762443069
 20
-171.847491833
 30
0.0
 11
1136.8762443069
 21
-212.6124559396
 31
0.0
  0
ENDBLK
  5
21A
330
211
100
AcDbEntity
  8
0
100
AcDbBlockEnd
  0
BLOCK
  5
28C
330
28A
100
AcDbEntity
  8
0
100
AcDbBlockBegin
  2
CLUMP1
 70
     0
 10
0.0
 20
0.0
 30
0.0
  3
CLUMP1
  1

  0
MTEXT
  5
28D
330
28A
100
AcDbEntity
  8
ﾚｲﾔｰ1
370
     5
100
AcDbMText
 10
696.1457149517
 20
-294.9068668161
 30
0.0
 40
5.9972220421
 41
18.4230131025
 71
     1
 72
     1
  1
\W0.8;\fＭＳ ゴシック;\W1.0;ＨＬ
 73
     1
 44
1.0
1001
ACAD
1000
MTEXTBEGIN
1070
    73
1070
     1
1070
    44
1040
1.0
1070
    74
1070
     0
1000
MTEXTEND
  0
LINE
  5
28E
330
28A
100
AcDbEntity
  8
ﾚｲﾔｰ1
370
     5
100
AcDbLine
 10
674.2227556569
 20
-305.8611538563
 30
0.0
 11
734.2227556569
 21
-305.8611538563
 31
0.0
  0
LINE
  5
28F
330
28A
100
AcDbEntity
  8
ﾚｲﾔｰ1
370
     5
100
AcDbLine
 10
676.2227556569
 20
-307.8611538563
 30
0.0
 11
736.2227556569
 21
-307.8611538563
 31
0.0
  0
LINE
  5
290
330
28A
100
AcDbEntity
  8
ﾚｲﾔｰ1
370
     5
100
AcDbLine
 10
678.2227556569
 20
-309.8611538563
 30
0.0
 11
738.2227556569
 21
-309.8611538563
 31
0.0
  0
LINE
  5
291
330
28A
100
AcDbEntity
  8
ﾚｲﾔｰ1
370
     5
100
AcDbLine
 10
680.2227556569
 20
-311.8611538563
 30
0.0
 11
740.2227556569
 21
-311.8611538563
 31
0.0
  0
LINE
  5
292
330
28A
100
AcDbEntity
  8
ﾚｲﾔｰ1
370
     5
100
AcDbLine
 10
682.2227556569
 20
-313.8611538563
 30
0.0
 11
742.2227556569001
 21
-313.8611538563
 31
0.0
  0
LINE
  5
293
330
28A
100
AcDbEntity
  8
ﾚｲﾔｰ1
370
     5
100
AcDbLine
 10
684.2227556569
 20
-315.8611538563
 30
0.0
 11
744.2227556569
 21
-315.8611538563
 31
0.0
  0
LINE
  5
294
330
28A
100
AcDbEntity
  8
ﾚｲﾔｰ1
370
     5
100
AcDbLine
 10
686.2227556569
 20
-317.8611538563
 30
0.0
 11
746.2227556569001
 21
-317.8611538563
 31
0.0
  0
LINE
  5
295
330
28A
100
AcDbEntity
  8
ﾚｲﾔｰ1
370
     5
100
AcDbLine
 10
672.2227556569
 20
-303.8611538563
 30
0.0
 11
732.2227556569
 21
-303.8611538563
 31
0.0
  0
ENDBLK
  5
296
330
28A
100
AcDbEntity
  8
0
100
AcDbBlockEnd
  0
ENDSEC
  0
SECTION
  2
ENTITIES
  0
MTEXT
  5
655
330
A
100
AcDbEntity
  8
____1
  6
Continuous
 62
     7
100
AcDbMText
 10
1016.986588339145
 20
245.5785776833914
 30
0.0
 40
5.644444274902342
 41
46.0
 71
     2
 72
     1
  1
\W0.8;\fＭＳ ゴシック;\W1.0;SUS304 HL
  7
STYLE1
 73
     1
 44
1.0
1001
ACAD
1000
MTEXTBEGIN
1070
    73
1070
     1
1070
    44
1040
1.0
1070
    74
1070
     0
1000
MTEXTEND
  0
MTEXT
  5
656
330
A
100
AcDbEntity
  8
____1
  6
Continuous
 62
     7
100
AcDbMText
 10
1056.986588339145
 20
245.5785776833914
 30
0.0
 40
5.644444274902342
 41
46.0
 71
     2
 72
     1
  1
\W0.8;\fＭＳ ゴシック;\W1.0;5.0t
  7
STYLE1
 73
     1
 44
1.0
1001
ACAD
1000
MTEXTBEGIN
1070
    73
1070
     1
1070
    44
1040
1.0
1070
    74
1070
     0
1000
MTEXTEND
  0
MTEXT
  5
657
330
A
100
AcDbEntity
  8
____1
  6
Continuous
 62
     0
100
AcDbMText
 10
956.9865883391456
 20
269.9517669095779
 30
0.0
 40
6.773332977294923
 41
121.977129013
 71
     1
 72
     1
  1
\W0.8;\fＭＳ ゴシック;\W1.0;表面処理：電解研磨仕上げ
  7
STYLE1
 73
     1
 44
1.0
1001
ACAD
1000
MTEXTBEGIN
1070
    73
1070
     1
1070
    44
1040
1.0
1070
    74
1070
     0
1000
MTEXTEND
  0
LINE
  5
658
330
A
100
AcDbEntity
  8
____1
  6
Continuous
 62
     0
100
AcDbLine
 10
1050.574004611732
 20
203.2922505249816
 30
0.0
 11
1050.574004611732
 21
202.3322505249816
 31
0.0
  0
LINE
  5
659
330
A
100
AcDbEntity
  8
____1
  6
Continuous
 62
     0
100
AcDbLine
 10
1098.339934932799
 20
195.6122505249815
 30
0.0
 11
1092.963934932799
 21
195.6122505249815
 31
0.0
  0
TEXT
  5
65A
330
A
100
AcDbEntity
  8
____1
  6
Continuous
 62
     7
100
AcDbText
 10
968.1671436827738
 20
239.5519572953694
 30
0.0
 40
5.644444274902342
  1
H14.5
  7
STYLE1
100
AcDbText
  0
TEXT
  5
65B
330
A
100
AcDbEntity
  8
____1
  6
Continuous
 62
     7
100
AcDbText
 10
999.0969515563998
 20
250.5662919827646
 30
0.0
 40
5.644444274902342
  1
 材　　質
  7
STYLE1
100
AcDbText
  0
TEXT
  5
65C
330
A
100
AcDbEntity
  8
____1
  6
Continuous
 62
     7
100
AcDbText
 10
1039.096951556399
 20
250.5662919827646
 30
0.0
 40
5.644444274902342
  1
 板　　厚
  7
STYLE1
100
AcDbText
  0
TEXT
  5
65D
330
A
100
AcDbEntity
  8
____1
  6
Continuous
 62
     7
100
AcDbText
 10
1049.931032995518
 20
217.5519572953694
 30
0.0
 40
5.644444274902342
  1
1：2
  7
STYLE1
100
AcDbText
  0
TEXT
  5
65E
330
A
100
AcDbEntity
  8
____1
  6
Continuous
 62
     7
100
AcDbText
 10
1039.096951556399
 20
228.5662919827647
 30
0.0
 40
5.644444274902342
  1
 尺　　度
  7
STYLE1
100
AcDbText
  0
LINE
  5
65F
330
A
100
AcDbEntity
  8
____1
  6
Continuous
 62
     7
100
AcDbLine
 10
956.9865883391456
 20
236.6121859501914
 30
0.0
 11
1076.986588339146
 21
236.6121859501914
 31
0.0
  0
LINE
  5
660
330
A
100
AcDbEntity
  8
____1
  6
Continuous
 62
     7
100
AcDbLine
 10
1116.986588339146
 20
236.6121859501914
 30
0.0
 11
1256.986588339146
 21
236.6121859501914
 31
0.0
  0
LINE
  5
661
330
A
100
AcDbEntity
  8
____1
  6
Continuous
 62
     7
100
AcDbLine
 10
1076.986588339146
 20
247.6121859501914
 30
0.0
 11
1116.986588339146
 21
247.6121859501914
 31
0.0
  0
TEXT
  5
662
330
A
100
AcDbEntity
  8
____1
  6
Continuous
 62
     7
100
AcDbText
 10
1079.096951556399
 20
250.5662919827646
 30
0.0
 40
5.644444274902342
  1
 検　　印
  7
STYLE1
100
AcDbText
  0
LINE
  5
663
330
A
100
AcDbEntity
  8
____1
  6
Continuous
 62
     0
100
AcDbLine
 10
1084.899934932799
 20
206.7482505249816
 30
0.0
 11
1084.899934932799
 21
203.2922505249816
 31
0.0
  0
TEXT
  5
664
330
A
100
AcDbEntity
  8
____1
  6
Continuous
 62
     7
100
AcDbText
 10
981.0054468892833
 20
197.776425084954
 30
0.0
 40
10.15999984741211
  1
株式会社
  7
STYLE1
100
AcDbText
  0
LINE
  5
665
330
A
100
AcDbEntity
  8
____1
  6
Continuous
 62
     7
100
AcDbLine
 10
956.9865883391456
 20
214.6121859501914
 30
0.0
 11
1256.986588339146
 21
214.6121859501914
 31
0.0
  0
LINE
  5
666
330
A
100
AcDbEntity
  8
____1
  6
Continuous
 62
     7
100
AcDbLine
 10
1036.986588339146
 20
258.6121859501914
 30
0.0
 11
1036.986588339146
 21
236.6121859501914
 31
0.0
  0
LINE
  5
667
330
A
100
AcDbEntity
  8
____1
  6
Continuous
 62
     7
100
AcDbLine
 10
1076.986588339146
 20
258.6121859501914
 30
0.0
 11
1076.986588339146
 21
214.6121859501914
 31
0.0
  0
LINE
  5
668
330
A
100
AcDbEntity
  8
____1
  6
Continuous
 62
     7
100
AcDbLine
 10
1116.986588339146
 20
258.6121859501914
 30
0.0
 11
1116.986588339146
 21
192.6121859501914
 31
0.0
  0
LINE
  5
669
330
A
100
AcDbEntity
  8
____1
  6
Continuous
 62
     7
100
AcDbLine
 10
1256.986588339146
 20
258.6121859501914
 30
0.0
 11
956.9865883391456
 21
258.6121859501914
 31
0.0
  0
LINE
  5
66A
330
A
100
AcDbEntity
  8
____1
  6
Continuous
 62
     0
100
AcDbLine
 10
1055.374004611731
 20
202.3322505249816
 30
0.0
 11
1055.374004611731
 21
203.2922505249816
 31
0.0
  0
ARC
  5
66B
330
A
100
AcDbEntity
  8
____1
  6
Continuous
 62
     0
100
AcDbCircle
 10
1047.694004611731
 20
202.3322505249816
 30
0.0
 40
2.879999999999999
100
AcDbArc
 50
270.0
 51
0.0
  0
LINE
  5
66C
330
A
100
AcDbEntity
  8
____1
  6
Continuous
 62
     0
100
AcDbLine
 10
1084.899934932799
 20
198.3002505249816
 30
0.0
 11
1092.175454932799
 21
198.3002505249816
 31
0.0
  0
LINE
  5
66D
330
A
100
AcDbEntity
  8
____1
  6
Continuous
 62
     0
100
AcDbLine
 10
1041.934004611731
 20
196.5722505249815
 30
0.0
 11
1049.614004611731
 21
196.5722505249815
 31
0.0
  0
ARC
  5
66E
330
A
100
AcDbEntity
  8
____1
  6
Continuous
 62
     0
100
AcDbCircle
 10
1068.162368248094
 20
207.1322505249816
 30
0.0
 40
10.56
100
AcDbArc
 50
322.4876119796974
 51
0.0
  0
LINE
  5
66F
330
A
100
AcDbEntity
  8
____1
  6
Continuous
 62
     0
100
AcDbLine
 10
1096.57190820927
 20
201.7562505249816
 30
0.0
 11
1102.179934932798
 21
201.7562505249816
 31
0.0
  0
ARC
  5
670
330
A
100
AcDbEntity
  8
____1
  6
Continuous
 62
     0
100
AcDbCircle
 10
1049.614004611731
 20
202.3322505249816
 30
0.0
 40
5.759999999999998
100
AcDbArc
 50
270.0
 51
0.0
  0
LINE
  5
671
330
A
100
AcDbEntity
  8
____1
  6
Continuous
 62
     5
100
AcDbLine
 10
1256.986588339146
 20
192.6121859501914
 30
0.0
 11
1256.986588339146
 21
258.6121859501914
 31
0.0
  0
LINE
  5
672
330
A
100
AcDbEntity
  8
____1
  6
Continuous
 62
     0
100
AcDbLine
 10
1063.362368248094
 20
210.0122505249816
 30
0.0
 11
1063.362368248094
 21
206.5562505249816
 31
0.0
  0
LINE
  5
673
330
A
100
AcDbEntity
  8
____1
  6
Continuous
 62
     0
100
AcDbLine
 10
1058.254004611732
 20
210.0122505249816
 30
0.0
 11
1050.574004611732
 21
210.0122505249816
 31
0.0
  0
LINE
  5
674
330
A
100
AcDbEntity
  8
____1
  6
Continuous
 62
     0
100
AcDbLine
 10
1058.254004611732
 20
206.1722505249817
 30
0.0
 11
1058.254004611732
 21
203.2922505249816
 31
0.0
  0
LINE
  5
675
330
A
100
AcDbEntity
  8
____1
  6
Continuous
 62
     0
100
AcDbLine
 10
1039.723885293549
 20
206.1722505249817
 30
0.0
 11
1039.723885293549
 21
203.2922505249816
 31
0.0
  0
LINE
  5
676
330
A
100
AcDbEntity
  8
____1
  6
Continuous
 62
     0
100
AcDbLine
 10
1063.362368248094
 20
204.9353470978532
 30
0.0
 11
1063.362368248094
 21
205.5537988114174
 31
0.0
  0
LINE
  5
677
330
A
100
AcDbEntity
  8
____1
  6
Continuous
 62
     0
100
AcDbLine
 10
1071.042368248094
 20
205.5537988114174
 30
0.0
 11
1069.956252232192
 21
204.467682795515
 31
0.0
  0
ARC
  5
678
330
A
100
AcDbEntity
  8
____1
  6
Continuous
 62
     0
100
AcDbCircle
 10
1065.666368248094
 20
206.7482505249816
 30
0.0
 40
7.29599999999998
100
AcDbArc
 50
270.0
 51
298.0859048152069
  0
LINE
  5
679
330
A
100
AcDbEntity
  8
____1
  6
Continuous
 62
     0
100
AcDbLine
 10
1063.362368248094
 20
205.5537988114174
 30
0.0
 11
1071.042368248094
 21
205.5537988114174
 31
0.0
  0
LINE
  5
67A
330
A
100
AcDbEntity
  8
____1
  6
Continuous
 62
     0
100
AcDbLine
 10
1072.072088232133
 20
203.2556343871704
 30
0.0
 11
1071.610144284004
 21
202.7454167349069
 31
0.0
  0
LINE
  5
67B
330
A
100
AcDbEntity
  8
____1
  6
Continuous
 62
     5
100
AcDbLine
 10
956.9865883391456
 20
192.6121859501914
 30
0.0
 11
1256.986588339146
 21
192.6121859501914
 31
0.0
  0
LINE
  5
67C
330
A
100
AcDbEntity
  8
____1
  6
Continuous
 62
     0
100
AcDbLine
 10
1050.574004611732
 20
210.0122505249816
 30
0.0
 11
1050.574004611732
 21
206.1722505249817
 31
0.0
  0
LINE
  5
67D
330
A
100
AcDbEntity
  8
____1
  6
Continuous
 62
     0
100
AcDbLine
 10
1063.362368248094
 20
196.5722505249815
 30
0.0
 11
1068.162368248094
 21
196.5722505249815
 31
0.0
  0
LINE
  5
67E
330
A
100
AcDbEntity
  8
____1
  6
Continuous
 62
     0
100
AcDbLine
 10
1096.129901528388
 20
203.2922505249816
 30
0.0
 11
1102.179934932798
 21
203.2922505249816
 31
0.0
  0
LINE
  5
67F
330
A
100
AcDbEntity
  8
____1
  6
Continuous
 62
     0
100
AcDbLine
 10
1078.722368248095
 20
207.1322505249816
 30
0.0
 11
1080.642368248095
 21
210.0122505249816
 31
0.0
  0
LINE
  5
680
330
A
100
AcDbEntity
  8
____1
  6
Continuous
 62
     0
100
AcDbLine
 10
1076.538789404103
 20
200.7019186037524
 30
0.0
 11
1076.196833449301
 21
200.3671125669086
 31
0.0
  0
LINE
  5
681
330
A
100
AcDbEntity
  8
____1
  6
Continuous
 62
     0
100
AcDbLine
 10
1046.734004611731
 20
206.1722505249817
 30
0.0
 11
1046.734004611731
 21
207.1322505249816
 31
0.0
  0
LINE
  5
682
330
A
100
AcDbEntity
  8
____1
  6
Continuous
 62
     0
100
AcDbLine
 10
1091.161694932799
 20
201.7562505249816
 30
0.0
 11
1090.711134932799
 21
203.2922505249816
 31
0.0
  0
LINE
  5
683
330
A
100
AcDbEntity
  8
____1
  6
Continuous
 62
     0
100
AcDbLine
 10
1055.374004611731
 20
207.1322505249816
 30
0.0
 11
1058.254004611732
 21
210.0122505249816
 31
0.0
  0
LINE
  5
684
330
A
100
AcDbEntity
  8
____1
  6
Continuous
 62
     0
100
AcDbLine
 10
1041.934004611731
 20
200.4122505249816
 30
0.0
 11
1046.734004611731
 21
200.4122505249816
 31
0.0
  0
TEXT
  5
685
330
A
100
AcDbEntity
  8
____1
  6
Continuous
 62
     7
100
AcDbText
 10
1147.675595842542
 20
222.5844090525351
 30
0.0
 40
6.773332977294923
  1
カウンターブラケット
  7
STYLE1
100
AcDbText
  0
TEXT
  5
686
330
A
100
AcDbEntity
  8
____1
  6
Continuous
 62
     0
100
AcDbText
 10
1074.557324781622
 20
270.8391089937813
 30
0.0
 40
6.773332977294923
  1
取付ビス：壁側　　SUS 皿ﾀｯﾋﾟﾝﾈｼﾞ 5x45
  7
STYLE1
100
AcDbText
  0
TEXT
  5
687
330
A
100
AcDbEntity
  8
____1
  6
Continuous
 62
     0
100
AcDbText
 10
1074.557324781622
 20
262.3724427721626
 30
0.0
 40
6.773332977294923
  1
          天板側　SUS 皿ﾀｯﾋﾟﾝﾈｼﾞ 5x16
  7
STYLE1
100
AcDbText
  0
LINE
  5
688
330
A
100
AcDbEntity
  8
____1
  6
Continuous
 62
     7
100
AcDbLine
 10
956.9865883391456
 20
258.6121859501914
 30
0.0
 11
956.9865883391456
 21
192.6121859501914
 31
0.0
  0
LINE
  5
689
330
A
100
AcDbEntity
  8
____1
  6
Continuous
 62
     7
100
AcDbLine
 10
1036.986588339146
 20
236.6121859501914
 30
0.0
 11
1036.986588339146
 21
214.6121859501914
 31
0.0
  0
LINE
  5
68A
330
A
100
AcDbEntity
  8
____1
  6
Continuous
 62
     0
100
AcDbLine
 10
1095.135386496404
 20
206.7482505249816
 30
0.0
 11
1102.179934932798
 21
206.7482505249816
 31
0.0
  0
LINE
  5
68B
330
A
100
AcDbEntity
  8
____1
  6
Continuous
 62
     0
100
AcDbLine
 10
1089.697374932799
 20
206.7482505249816
 30
0.0
 11
1088.739934932799
 21
210.0122505249816
 31
0.0
  0
LINE
  5
68C
330
A
100
AcDbEntity
  8
____1
  6
Continuous
 62
     0
100
AcDbLine
 10
1097.566423241255
 20
198.3002505249816
 30
0.0
 11
1102.179934932798
 21
198.3002505249816
 31
0.0
  0
LINE
  5
68D
330
A
100
AcDbEntity
  8
____1
  6
Continuous
 62
     0
100
AcDbLine
 10
1041.934004611731
 20
210.0122505249816
 30
0.0
 11
1041.934004611731
 21
206.1722505249817
 31
0.0
  0
LINE
  5
68E
330
A
100
AcDbEntity
  8
____1
  6
Continuous
 62
     0
100
AcDbLine
 10
1046.734004611731
 20
207.1322505249816
 30
0.0
 11
1049.614004611731
 21
210.0122505249816
 31
0.0
  0
LINE
  5
68F
330
A
100
AcDbEntity
  8
____1
  6
Continuous
 62
     0
100
AcDbLine
 10
1049.614004611731
 20
210.0122505249816
 30
0.0
 11
1041.934004611731
 21
210.0122505249816
 31
0.0
  0
LINE
  5
690
330
A
100
AcDbEntity
  8
____1
  6
Continuous
 62
     0
100
AcDbLine
 10
1050.574004611732
 20
206.1722505249817
 30
0.0
 11
1046.734004611731
 21
206.1722505249817
 31
0.0
  0
LINE
  5
691
330
A
100
AcDbEntity
  8
____1
  6
Continuous
 62
     0
100
AcDbLine
 10
1046.734004611731
 20
200.4122505249816
 30
0.0
 11
1046.734004611731
 21
203.2922505249816
 31
0.0
  0
LINE
  5
692
330
A
100
AcDbEntity
  8
____1
  6
Continuous
 62
     0
100
AcDbLine
 10
1084.899934932799
 20
201.7562505249816
 30
0.0
 11
1084.899934932799
 21
198.3002505249816
 31
0.0
  0
LINE
  5
693
330
A
100
AcDbEntity
  8
____1
  6
Continuous
 62
     0
100
AcDbLine
 10
1084.899934932799
 20
203.2922505249816
 30
0.0
 11
1090.711134932799
 21
203.2922505249816
 31
0.0
  0
LINE
  5
694
330
A
100
AcDbEntity
  8
____1
  6
Continuous
 62
     0
100
AcDbLine
 10
1102.179934932798
 20
206.7482505249816
 30
0.0
 11
1102.179934932798
 21
203.2922505249816
 31
0.0
  0
LINE
  5
695
330
A
100
AcDbEntity
  8
____1
  6
Continuous
 62
     0
100
AcDbLine
 10
1063.362368248094
 20
206.5562505249816
 30
0.0
 11
1072.962368248094
 21
206.5562505249816
 31
0.0
  0
LINE
  5
696
330
A
100
AcDbEntity
  8
____1
  6
Continuous
 62
     0
100
AcDbLine
 10
1047.694004611731
 20
199.4522505249815
 30
0.0
 11
1041.934004611731
 21
199.4522505249815
 31
0.0
  0
LINE
  5
697
330
A
100
AcDbEntity
  8
____1
  6
Continuous
 62
     0
100
AcDbLine
 10
1092.963934932799
 20
195.6122505249815
 30
0.0
 11
1092.175454932799
 21
198.3002505249816
 31
0.0
  0
LINE
  5
698
330
A
100
AcDbEntity
  8
____1
  6
Continuous
 62
     0
100
AcDbLine
 10
1096.57190820927
 20
201.7562505249816
 30
0.0
 11
1096.129901528388
 21
203.2922505249816
 31
0.0
  0
LINE
  5
699
330
A
100
AcDbEntity
  8
____1
  6
Continuous
 62
     5
100
AcDbLine
 10
1256.986588339146
 20
258.6121859501914
 30
0.0
 11
1256.986588339146
 21
752.6121859501913
 31
0.0
  0
LINE
  5
69A
330
A
100
AcDbEntity
  8
____1
  6
Continuous
 62
     5
100
AcDbLine
 10
1256.986588339146
 20
752.6121859501913
 30
0.0
 11
456.9865883391456
 21
752.6121859501913
 31
0.0
  0
LINE
  5
69B
330
A
100
AcDbEntity
  8
____1
  6
Continuous
 62
     5
100
AcDbLine
 10
956.9865883391456
 20
192.6121859501914
 30
0.0
 11
456.9865883391458
 21
192.6121859501914
 31
0.0
  0
LINE
  5
69C
330
A
100
AcDbEntity
  8
____1
  6
Continuous
 62
     0
100
AcDbLine
 10
1084.899934932799
 20
201.7562505249816
 30
0.0
 11
1091.161694932799
 21
201.7562505249816
 31
0.0
  0
LINE
  5
69D
330
A
100
AcDbEntity
  8
____1
  6
Continuous
 62
     0
100
AcDbLine
 10
1039.723885293549
 20
203.2922505249816
 30
0.0
 11
1041.643885293549
 21
203.2922505249816
 31
0.0
  0
LINE
  5
69E
330
A
100
AcDbEntity
  8
____1
  6
Continuous
 62
     0
100
AcDbLine
 10
1098.339934932799
 20
195.6122505249815
 30
0.0
 11
1097.566423241255
 21
198.3002505249816
 31
0.0
  0
LINE
  5
69F
330
A
100
AcDbEntity
  8
____1
  6
Continuous
 62
     0
100
AcDbLine
 10
1046.734004611731
 20
203.2922505249816
 30
0.0
 11
1050.574004611732
 21
203.2922505249816
 31
0.0
  0
LINE
  5
6A0
330
A
100
AcDbEntity
  8
____1
  6
Continuous
 62
     0
100
AcDbLine
 10
1063.362368248094
 20
196.5722505249815
 30
0.0
 11
1063.362368248094
 21
199.4522505249815
 31
0.0
  0
LINE
  5
6A1
330
A
100
AcDbEntity
  8
____1
  6
Continuous
 62
     0
100
AcDbLine
 10
1041.934004611731
 20
199.4522505249815
 30
0.0
 11
1041.934004611731
 21
196.5722505249815
 31
0.0
  0
LINE
  5
6A2
330
A
100
AcDbEntity
  8
____1
  6
Continuous
 62
     0
100
AcDbLine
 10
1041.934004611731
 20
203.2922505249816
 30
0.0
 11
1041.643885293549
 21
203.2922505249816
 31
0.0
  0
LINE
  5
6A3
330
A
100
AcDbEntity
  8
____1
  6
Continuous
 62
     0
100
AcDbLine
 10
1080.642368248095
 20
199.4522505249815
 30
0.0
 11
1080.642368248095
 21
196.5722505249815
 31
0.0
  0
LINE
  5
6A4
330
A
100
AcDbEntity
  8
____1
  6
Continuous
 62
     0
100
AcDbLine
 10
1102.179934932798
 20
201.7562505249816
 30
0.0
 11
1102.179934932798
 21
198.3002505249816
 31
0.0
  0
LINE
  5
6A5
330
A
100
AcDbEntity
  8
____1
  6
Continuous
 62
     0
100
AcDbLine
 10
1041.934004611731
 20
206.1722505249817
 30
0.0
 11
1039.723885293549
 21
206.1722505249817
 31
0.0
  0
LINE
  5
6A6
330
A
100
AcDbEntity
  8
____1
  6
Continuous
 62
     0
100
AcDbLine
 10
1088.739934932799
 20
210.0122505249816
 30
0.0
 11
1096.419934932799
 21
210.0122505249816
 31
0.0
  0
LINE
  5
6A7
330
A
100
AcDbEntity
  8
____1
  6
Continuous
 62
     0
100
AcDbLine
 10
1063.362368248094
 20
199.4522505249815
 30
0.0
 11
1065.666368248094
 21
199.4522505249815
 31
0.0
  0
LINE
  5
6A8
330
A
100
AcDbEntity
  8
____1
  6
Continuous
 62
     0
100
AcDbLine
 10
1063.362368248094
 20
199.4522505249815
 30
0.0
 11
1063.362368248094
 21
196.5722505249815
 31
0.0
  0
LINE
  5
6A9
330
A
100
AcDbEntity
  8
____1
  6
Continuous
 62
     0
100
AcDbLine
 10
1078.722368248095
 20
207.1322505249816
 30
0.0
 11
1080.642368248095
 21
210.0122505249816
 31
0.0
  0
POLYLINE
  5
6AA
330
A
100
AcDbEntity
  8
____1
  6
Continuous
 62
     0
100
AcDb3dPolyline
 66
     1
 10
0.0
 20
0.0
 30
0.0
 70
     8
  0
VERTEX
  5
6AB
330
6AA
100
AcDbEntity
  8
____1
 62
     0
100
AcDbVertex
100
AcDb3dPolylineVertex
 10
1073.843238892767
 20
198.2304917819861
 30
0.0
 70
    32
  0
VERTEX
  5
6AC
330
6AA
100
AcDbEntity
  8
____1
 62
     0
100
AcDbVertex
100
AcDb3dPolylineVertex
 10
1075.503975612152
 20
197.7437340502297
 30
0.0
 70
    32
  0
VERTEX
  5
6AD
330
6AA
100
AcDbEntity
  8
____1
 62
     0
100
AcDbVertex
100
AcDb3dPolylineVertex
 10
1077.198180005349
 20
197.318859819192
 30
0.0
 70
    32
  0
VERTEX
  5
6AE
330
6AA
100
AcDbEntity
  8
____1
 62
     0
100
AcDbVertex
100
AcDb3dPolylineVertex
 10
1080.642368248095
 20
196.5722505249815
 30
0.0
 70
    32
  0
SEQEND
  5
6AF
330
6AA
100
AcDbEntity
  8
____1
 62
     0
  0
POLYLINE
  5
6B0
330
A
100
AcDbEntity
  8
____1
  6
Continuous
 62
     0
100
AcDb3dPolyline
 66
     1
 10
0.0
 20
0.0
 30
0.0
 70
     8
  0
VERTEX
  5
6B1
330
6B0
100
AcDbEntity
  8
____1
 62
     0
100
AcDbVertex
100
AcDb3dPolylineVertex
 10
1069.956252232192
 20
204.467682795515
 30
0.0
 70
    32
  0
VERTEX
  5
6B2
330
6B0
100
AcDbEntity
  8
____1
 62
     0
100
AcDbVertex
100
AcDb3dPolylineVertex
 10
1070.766433181667
 20
203.5795590327298
 30
0.0
 70
    32
  0
VERTEX
  5
6B3
330
6B0
100
AcDbEntity
  8
____1
 62
     0
100
AcDbVertex
100
AcDb3dPolylineVertex
 10
1071.610144284004
 20
202.7454167349068
 30
0.0
 70
    32
  0
SEQEND
  5
6B4
330
6B0
100
AcDbEntity
  8
____1
 62
     0
  0
POLYLINE
  5
6B5
330
A
100
AcDbEntity
  8
____1
  6
Continuous
 62
     0
100
AcDb3dPolyline
 66
     1
 10
0.0
 20
0.0
 30
0.0
 70
     8
  0
VERTEX
  5
6B6
330
6B5
100
AcDbEntity
  8
____1
 62
     0
100
AcDbVertex
100
AcDb3dPolylineVertex
 10
1076.196833449302
 20
200.3671125669086
 30
0.0
 70
    32
  0
VERTEX
  5
6B7
330
6B5
100
AcDbEntity
  8
____1
 62
     0
100
AcDbVertex
100
AcDb3dPolylineVertex
 10
1077.277953540658
 20
200.0896745253966
 30
0.0
 70
    32
  0
VERTEX
  5
6B8
330
6B5
100
AcDbEntity
  8
____1
 62
     0
100
AcDbVertex
100
AcDb3dPolylineVertex
 10
1078.385013867737
 20
199.8539986533392
 30
0.0
 70
    32
  0
VERTEX
  5
6B9
330
6B5
100
AcDbEntity
  8
____1
 62
     0
100
AcDbVertex
100
AcDb3dPolylineVertex
 10
1080.642368248095
 20
199.4522505249815
 30
0.0
 70
    32
  0
SEQEND
  5
6BA
330
6B5
100
AcDbEntity
  8
____1
 62
     0
  0
LINE
  5
6BB
330
A
100
AcDbEntity
  8
____1
  6
Continuous
 62
     0
100
AcDbLine
 10
1080.642368248095
 20
210.0122505249816
 30
0.0
 11
1063.362368248094
 21
210.0122505249816
 31
0.0
  0
LINE
  5
6BC
330
A
100
AcDbEntity
  8
____1
  6
Continuous
 62
     0
100
AcDbLine
 10
1095.135386496404
 20
206.7482505249816
 30
0.0
 11
1094.854309535973
 21
207.7250099946785
 31
0.0
  0
LINE
  5
6BD
330
A
100
AcDbEntity
  8
____1
  6
Continuous
 62
     7
100
AcDbLine
 10
996.9865883391456
 20
258.6121859501914
 30
0.0
 11
996.9865883391456
 21
236.6121859501914
 31
0.0
  0
LINE
  5
6BE
330
A
100
AcDbEntity
  8
____1
  6
Continuous
 62
     7
100
AcDbLine
 10
1041.986588339145
 20
225.6121859501914
 30
0.0
 11
1071.986588339146
 21
225.6121859501914
 31
0.0
  0
LINE
  5
6BF
330
A
100
AcDbEntity
  8
____1
  6
Continuous
 62
     7
100
AcDbLine
 10
1041.986588339145
 20
247.6121859501914
 30
0.0
 11
1071.986588339146
 21
247.6121859501914
 31
0.0
  0
LINE
  5
6C0
330
A
100
AcDbEntity
  8
____1
  6
Continuous
 62
     7
100
AcDbLine
 10
1001.986588339146
 20
247.6121859501914
 30
0.0
 11
1031.986588339146
 21
247.6121859501914
 31
0.0
  0
LINE
  5
6C1
330
A
100
AcDbEntity
  8
____1
  6
Continuous
 62
     7
100
AcDbLine
 10
961.9865883391462
 20
247.6121859501914
 30
0.0
 11
991.9865883391461
 21
247.6121859501914
 31
0.0
  0
LINE
  5
6C2
330
A
100
AcDbEntity
  8
____1
  6
Continuous
 62
     0
100
AcDbLine
 10
1041.934004611731
 20
203.2922505249816
 30
0.0
 11
1041.934004611731
 21
200.4122505249816
 31
0.0
  0
LINE
  5
6C3
330
A
100
AcDbEntity
  8
____1
  6
Continuous
 62
     0
100
AcDbLine
 10
1094.854309535973
 20
207.7250099946785
 30
0.0
 11
1096.419934932799
 21
210.0122505249816
 31
0.0
  0
LINE
  5
6C4
330
A
100
AcDbEntity
  8
____1
  6
Continuous
 62
     0
100
AcDbLine
 10
1084.899934932799
 20
206.7482505249816
 30
0.0
 11
1089.697374932799
 21
206.7482505249816
 31
0.0
  0
LINE
  5
6C5
330
A
100
AcDbEntity
  8
____1
  6
Continuous
 62
     0
100
AcDbLine
 10
1055.374004611731
 20
206.1722505249817
 30
0.0
 11
1055.374004611731
 21
207.1322505249816
 31
0.0
  0
LINE
  5
6C6
330
A
100
AcDbEntity
  8
____1
  6
Continuous
 62
     0
100
AcDbLine
 10
1058.254004611732
 20
206.1722505249817
 30
0.0
 11
1055.374004611731
 21
206.1722505249817
 31
0.0
  0
ARC
  5
6C7
330
A
100
AcDbEntity
  8
____1
  6
Continuous
 62
     0
100
AcDbCircle
 10
1068.162368248094
 20
207.1322505249816
 30
0.0
 40
10.56000000000012
100
AcDbArc
 50
270.0
 51
302.5449588540466
  0
LINE
  5
6C8
330
A
100
AcDbEntity
  8
____1
  6
Continuous
 62
     0
100
AcDbLine
 10
1055.374004611731
 20
203.2922505249816
 30
0.0
 11
1058.254004611732
 21
203.2922505249816
 31
0.0
  0
ARC
  5
6C9
330
A
100
AcDbEntity
  8
____1
  6
Continuous
 62
     0
100
AcDbCircle
 10
1065.666368248094
 20
206.7482505249816
 30
0.0
 40
7.296000000000057
100
AcDbArc
 50
331.3992813832578
 51
358.4920422457636
  0
LINE
  5
6CA
330
A
100
AcDbEntity
  8
____1
  6
Continuous
 62
     5
100
AcDbLine
 10
456.9865883391458
 20
192.6121859501914
 30
0.0
 11
456.9865883391458
 21
752.6121859501913
 31
0.0
  0
TEXT
  5
6CB
330
A
100
AcDbEntity
  8
____1
  6
Continuous
 62
     7
100
AcDbText
 10
1119.219932012785
 20
206.5651398296059
 30
0.0
 40
5.644444274902342
  1
図番
  7
STYLE1
100
AcDbText
  0
TEXT
  5
6CC
330
A
100
AcDbEntity
  8
____1
  6
Continuous
 62
     7
100
AcDbText
 10
1119.219932012785
 20
228.5651398296059
 30
0.0
 40
5.644444274902342
  1
品名
  7
STYLE1
100
AcDbText
  0
TEXT
  5
6CD
330
A
100
AcDbEntity
  8
____1
  6
Continuous
 62
     7
100
AcDbText
 10
1119.219932012785
 20
250.5651398296059
 30
0.0
 40
5.644444274902342
  1
型番
  7
STYLE1
100
AcDbText
  0
TEXT
  5
6CE
330
A
100
AcDbEntity
  8
____1
  6
Continuous
 62
     7
100
AcDbText
 10
959.0969515563998
 20
250.5662919827646
 30
0.0
 40
5.644444274902342
  1
 日　　付
  7
STYLE1
100
AcDbText
  0
TEXT
  5
6CF
330
A
100
AcDbEntity
  8
____1
  6
Continuous
 62
     7
100
AcDbText
 10
956.9865883391456
 20
217.5662919827646
 30
0.0
 40
5.644444274902342
  1
 製図　　 岸本
  7
STYLE1
100
AcDbText
  0
TEXT
  5
6D0
330
A
100
AcDbEntity
  8
____1
  6
Continuous
 62
     7
100
AcDbText
 10
956.9865883391456
 20
228.5662919827647
 30
0.0
 40
5.644444274902342
  1
 設計　　 岸本
  7
STYLE1
100
AcDbText
  0
LINE
  5
6D1
330
A
100
AcDbEntity
  8
____1
  6
Continuous
 62
     7
100
AcDbLine
 10
961.9865883391462
 20
225.6121859501914
 30
0.0
 11
1031.986588339146
 21
225.6121859501914
 31
0.0
  0
POLYLINE
  5
6D2
330
A
100
AcDbEntity
  8
____1
  6
Continuous
 62
     0
100
AcDb3dPolyline
 66
     1
 10
0.0
 20
0.0
 30
0.0
 70
     8
  0
VERTEX
  5
6D3
330
6D2
100
AcDbEntity
  8
____1
 62
     0
100
AcDbVertex
100
AcDb3dPolylineVertex
 10
1063.362368248094
 20
204.9353470978532
 30
0.0
 70
    32
  0
VERTEX
  5
6D4
330
6D2
100
AcDbEntity
  8
____1
 62
     0
100
AcDbVertex
100
AcDb3dPolylineVertex
 10
1064.740755076366
 20
203.6751810745484
 30
0.0
 70
    32
  0
VERTEX
  5
6D5
330
6D2
100
AcDbEntity
  8
____1
 62
     0
100
AcDbVertex
100
AcDb3dPolylineVertex
 10
1066.141679101176
 20
202.4566875208045
 30
0.0
 70
    32
  0
VERTEX
  5
6D6
330
6D2
100
AcDbEntity
  8
____1
 62
     0
100
AcDbVertex
100
AcDb3dPolylineVertex
 10
1067.587677519063
 20
201.3215389061826
 30
0.0
 70
    32
  0
VERTEX
  5
6D7
330
6D2
100
AcDbEntity
  8
____1
 62
     0
100
AcDbVertex
100
AcDb3dPolylineVertex
 10
1069.101287526567
 20
200.3114077002438
 30
0.0
 70
    32
  0
VERTEX
  5
6D8
330
6D2
100
AcDbEntity
  8
____1
 62
     0
100
AcDbVertex
100
AcDb3dPolylineVertex
 10
1069.101287530484
 20
200.3114076978917
 30
0.0
 70
    32
  0
SEQEND
  5
6D9
330
6D2
100
AcDbEntity
  8
____1
 62
     0
  0
TEXT
  5
6DA
330
A
100
AcDbEntity
  8
____1
  6
Continuous
 62
     0
100
AcDbText
 10
1106.403255323704
 20
745.0617738900656
 30
0.0
 40
4.938888740539549
  1
改訂日
  7
STYLE1
100
AcDbText
  0
LINE
  5
6DB
330
A
100
AcDbEntity
  8
____1
  6
Continuous
 62
     0
100
AcDbLine
 10
1076.986588339146
 20
742.6121859501912
 30
0.0
 11
1256.986588339146
 21
742.6121859501912
 31
0.0
  0
LINE
  5
6DC
330
A
100
AcDbEntity
  8
____1
  6
Continuous
 62
     0
100
AcDbLine
 10
1076.986588339146
 20
732.6121859501912
 30
0.0
 11
1256.986588339146
 21
732.6121859501912
 31
0.0
  0
LINE
  5
6DD
330
A
100
AcDbEntity
  8
____1
  6
Continuous
 62
     0
100
AcDbLine
 10
1081.468017567061
 20
743.3737694521981
 30
0.0
 11
1091.368017567061
 21
743.3737694521981
 31
0.0
  0
LINE
  5
6DE
330
A
100
AcDbEntity
  8
____1
  6
Continuous
 62
     0
100
AcDbLine
 10
1086.418017567061
 20
751.9474209496637
 30
0.0
 11
1091.368017567061
 21
743.3737694521981
 31
0.0
  0
LINE
  5
6DF
330
A
100
AcDbEntity
  8
____1
  6
Continuous
 62
     0
100
AcDbLine
 10
1086.418017567061
 20
751.9474209496637
 30
0.0
 11
1081.468017567061
 21
743.3737694521981
 31
0.0
  0
LINE
  5
6E0
330
A
100
AcDbEntity
  8
____1
  6
Continuous
 62
     0
100
AcDbLine
 10
1076.986588339146
 20
732.6121859501912
 30
0.0
 11
1076.986588339146
 21
752.6121859501913
 31
0.0
  0
LINE
  5
6E1
330
A
100
AcDbEntity
  8
____1
  6
Continuous
 62
     0
100
AcDbLine
 10
1096.986588339146
 20
732.6121859501912
 30
0.0
 11
1096.986588339146
 21
752.6121859501913
 31
0.0
  0
LINE
  5
6E2
330
A
100
AcDbEntity
  8
____1
  6
Continuous
 62
     0
100
AcDbLine
 10
1136.986588339146
 20
732.6121859501912
 30
0.0
 11
1136.986588339146
 21
752.6121859501913
 31
0.0
  0
LINE
  5
6E3
330
A
100
AcDbEntity
  8
____1
  6
Continuous
 62
     0
100
AcDbLine
 10
1136.986588339146
 20
732.6121859501912
 30
0.0
 11
1136.986588339146
 21
752.6121859501913
 31
0.0
  0
TEXT
  5
6E4
330
A
100
AcDbEntity
  8
____1
  6
Continuous
 62
     0
100
AcDbText
 10
1172.292145590122
 20
745.0617738900656
 30
0.0
 40
4.938888740539549
  1
改　訂　内　容
  7
STYLE1
100
AcDbText
  0
TEXT
  5
6E5
330
A
100
AcDbEntity
  8
____1
  6
Continuous
 62
     7
100
AcDbText
 10
1166.207659896001
 20
245.0252998194049
 30
0.0
 40
6.773332977294923
  1
ＬＳ-７３６
  7
STYLE1
100
AcDbText
  0
LINE
  5
6E6
330
A
100
AcDbEntity
  8
____1
  6
Continuous
 62
     0
100
AcDbLine
 10
1233.535022939554
 20
253.2812538650465
 30
0.0
 11
1228.585022939554
 21
244.7076023675806
 31
0.0
  0
LINE
  5
6E7
330
A
100
AcDbEntity
  8
____1
  6
Continuous
 62
     0
100
AcDbLine
 10
1233.535022939554
 20
253.2812538650465
 30
0.0
 11
1238.485022939554
 21
244.7076023675806
 31
0.0
  0
LINE
  5
6E8
330
A
100
AcDbEntity
  8
____1
  6
Continuous
 62
     0
100
AcDbLine
 10
1228.585022939554
 20
244.7076023675806
 30
0.0
 11
1238.485022939554
 21
244.7076023675806
 31
0.0
  0
TEXT
  5
6E9
330
A
100
AcDbEntity
  8
____1
  6
Continuous
 62
     0
100
AcDbText
 10
1232.071701120321
 20
245.8075509956964
 30
0.0
 40
4.682630310058592
  1
1
  7
STYLE1
100
AcDbText
  0
TEXT
  5
6EA
330
A
100
AcDbEntity
  8
____1
  6
Continuous
 62
     0
100
AcDbText
 10
1244.09893638584
 20
268.9740757800032
 30
0.0
 40
4.682630310058592
  1
1
  7
STYLE1
100
AcDbText
  0
LINE
  5
6EB
330
A
100
AcDbEntity
  8
____1
  6
Continuous
 62
     0
100
AcDbLine
 10
1240.612258205073
 20
267.8741271518875
 30
0.0
 11
1250.512258205073
 21
267.8741271518875
 31
0.0
  0
LINE
  5
6EC
330
A
100
AcDbEntity
  8
____1
  6
Continuous
 62
     0
100
AcDbLine
 10
1245.562258205072
 20
276.4477786493535
 30
0.0
 11
1250.512258205073
 21
267.8741271518875
 31
0.0
  0
LINE
  5
6ED
330
A
100
AcDbEntity
  8
____1
  6
Continuous
 62
     0
100
AcDbLine
 10
1245.562258205072
 20
276.4477786493535
 30
0.0
 11
1240.612258205073
 21
267.8741271518875
 31
0.0
  0
TEXT
  5
6EE
330
A
100
AcDbEntity
  8
____1
  6
Continuous
 62
     0
100
AcDbText
 10
1084.954695747828
 20
734.5737180803137
 30
0.0
 40
4.682630310058592
  1
1
  7
STYLE1
100
AcDbText
  0
LINE
  5
6EF
330
A
100
AcDbEntity
  8
____1
  6
Continuous
 62
     0
100
AcDbLine
 10
1081.468017567061
 20
733.4737694521979
 30
0.0
 11
1091.368017567061
 21
733.4737694521979
 31
0.0
  0
LINE
  5
6F0
330
A
100
AcDbEntity
  8
____1
  6
Continuous
 62
     0
100
AcDbLine
 10
1086.418017567061
 20
742.0474209496639
 30
0.0
 11
1091.368017567061
 21
733.4737694521979
 31
0.0
  0
LINE
  5
6F1
330
A
100
AcDbEntity
  8
____1
  6
Continuous
 62
     0
100
AcDbLine
 10
1086.418017567061
 20
742.0474209496639
 30
0.0
 11
1081.468017567061
 21
733.4737694521979
 31
0.0
  0
TEXT
  5
6F2
330
A
100
AcDbEntity
  8
____1
  6
Continuous
 62
     0
100
AcDbText
 10
1141.651824301951
 20
735.1326228913912
 30
0.0
 40
4.938888740539549
  1
ﾈｼﾞ仕様変更（木ﾈｼﾞ ⇒ 皿ﾀｯﾋﾟﾝﾈｼﾞ）
  7
STYLE1
100
AcDbText
  0
TEXT
  5
6F3
330
A
100
AcDbEntity
  8
____1
  6
Continuous
 62
     0
100
AcDbText
 10
1106.403255323704
 20
735.1326228913912
 30
0.0
 40
4.938888740539549
  1
H25.03
  7
STYLE1
100
AcDbText
  0
LWPOLYLINE
  5
6F4
330
A
100
AcDbEntity
  8
DEFPOINTS
100
AcDbPolyline
 90
        4
 70
     1
 43
0.0
 10
1278.981588339144
 20
767.9621859501915
 10
436.9865883391459
 20
767.9621859501915
 10
436.9865883391459
 20
172.6121859501913
 10
1278.981588339144
 20
172.6121859501913
  0
SOLID
  5
83B
330
A
100
AcDbEntity
  8
寸法線
100
AcDbTrace
 10
1205.775434164346
 20
331.8078363340808
 30
0.0
 11
1204.275434164346
 21
337.8078363340808
 31
0.0
 12
1207.275434164346
 22
337.8078363340808
 32
0.0
 13
1205.775434164346
 23
336.3078363340808
 33
0.0
  0
LINE
  5
83C
330
A
100
AcDbEntity
  8
寸法線
100
AcDbLine
 10
1205.775434164346
 20
331.8078363340808
 30
0.0
 11
1205.775434164346
 21
334.8078363340808
 31
0.0
  0
SOLID
  5
83D
330
A
100
AcDbEntity
  8
寸法線
100
AcDbTrace
 10
1205.775434164346
 20
361.8078363340808
 30
0.0
 11
1207.275434164346
 21
355.8078363340808
 31
0.0
 12
1204.275434164346
 22
355.8078363340808
 32
0.0
 13
1205.775434164346
 23
357.3078363340808
 33
0.0
  0
LINE
  5
83E
330
A
100
AcDbEntity
  8
寸法線
100
AcDbLine
 10
1205.775434164346
 20
361.8078363340808
 30
0.0
 11
1205.775434164346
 21
358.8078363340808
 31
0.0
  0
LINE
  5
83F
330
A
100
AcDbEntity
  8
寸法線
100
AcDbLine
 10
1205.775434164346
 20
361.8078363340808
 30
0.0
 11
1205.775434164346
 21
339.7522809903808
 31
0.0
  0
LINE
  5
840
330
A
100
AcDbEntity
  8
寸法線
100
AcDbLine
 10
1205.775434164346
 20
361.8078363340808
 30
0.0
 11
1205.775434164346
 21
353.8633916776808
 31
0.0
  0
LINE
  5
841
330
A
100
AcDbEntity
  8
寸法線
100
AcDbLine
 10
1205.775434164346
 20
331.8078363340808
 30
0.0
 11
1205.775434164346
 21
339.7522809903808
 31
0.0
  0
LINE
  5
842
330
A
100
AcDbEntity
  8
寸法線
100
AcDbLine
 10
1205.775434164346
 20
331.8078363340808
 30
0.0
 11
1205.775434164346
 21
353.8633916776808
 31
0.0
  0
LINE
  5
843
330
A
100
AcDbEntity
  8
寸法線
100
AcDbLine
 10
1099.694791464146
 20
361.8078363340808
 30
0.0
 11
1206.275434164346
 21
361.8078363340808
 31
0.0
  0
LINE
  5
844
330
A
100
AcDbEntity
  8
寸法線
100
AcDbLine
 10
964.694791464146
 20
331.8078363340808
 30
0.0
 11
1206.275434164346
 21
331.8078363340808
 31
0.0
  0
TEXT
  5
845
330
A
100
AcDbEntity
  8
寸法線
100
AcDbText
 10
1203.717100862846
 20
343.2800586622808
 30
0.0
 40
5.9972220421
  1
30
 50
90.0
100
AcDbText
  0
SOLID
  5
846
330
A
100
AcDbEntity
  8
寸法線
100
AcDbTrace
 10
662.8985001497457
 20
359.7487885891808
 30
0.0
 11
656.9523477269457
 21
361.4497504834809
 31
0.0
 12
658.4523477269457
 22
364.0478266948808
 32
0.0
 13
659.0013858326457
 23
361.9987885891808
 33
0.0
  0
LINE
  5
847
330
A
100
AcDbEntity
  8
寸法線
100
AcDbLine
 10
662.8985001497457
 20
359.7487885891808
 30
0.0
 11
631.1260936266457
 21
378.0925960480808
 31
0.0
  0
TEXT
  5
848
330
A
100
AcDbEntity
  8
寸法線
100
AcDbText
 10
632.3608158118458
 20
380.2311976059808
 30
0.0
 40
5.9972220421
  1
R50
 50
330.0
100
AcDbText
  0
SOLID
  5
849
330
A
100
AcDbEntity
  8
寸法線
100
AcDbTrace
 10
1219.357378269745
 20
321.8078363340808
 30
0.0
 11
1217.857378269746
 21
327.8078363340808
 31
0.0
 12
1220.857378269746
 22
327.8078363340808
 32
0.0
 13
1219.357378269745
 23
326.3078363340808
 33
0.0
  0
LINE
  5
84A
330
A
100
AcDbEntity
  8
寸法線
100
AcDbLine
 10
1219.357378269745
 20
321.8078363340808
 30
0.0
 11
1219.357378269745
 21
324.8078363340809
 31
0.0
  0
SOLID
  5
84B
330
A
100
AcDbEntity
  8
寸法線
100
AcDbTrace
 10
1219.357378269745
 20
371.8078363340808
 30
0.0
 11
1220.857378269746
 21
365.8078363340808
 31
0.0
 12
1217.857378269746
 22
365.8078363340808
 32
0.0
 13
1219.357378269745
 23
367.3078363340808
 33
0.0
  0
LINE
  5
84C
330
A
100
AcDbEntity
  8
寸法線
100
AcDbLine
 10
1219.357378269745
 20
371.8078363340808
 30
0.0
 11
1219.357378269745
 21
368.8078363340808
 31
0.0
  0
LINE
  5
84D
330
A
100
AcDbEntity
  8
寸法線
100
AcDbLine
 10
1219.357378269745
 20
371.8078363340808
 30
0.0
 11
1219.357378269745
 21
339.7522809903808
 31
0.0
  0
LINE
  5
84E
330
A
100
AcDbEntity
  8
寸法線
100
AcDbLine
 10
1219.357378269745
 20
371.8078363340808
 30
0.0
 11
1219.357378269745
 21
353.8633916776808
 31
0.0
  0
LINE
  5
84F
330
A
100
AcDbEntity
  8
寸法線
100
AcDbLine
 10
1219.357378269745
 20
321.8078363340808
 30
0.0
 11
1219.357378269745
 21
339.7522809903808
 31
0.0
  0
LINE
  5
850
330
A
100
AcDbEntity
  8
寸法線
100
AcDbLine
 10
1219.357378269745
 20
321.8078363340808
 30
0.0
 11
1219.357378269745
 21
353.8633916776808
 31
0.0
  0
LINE
  5
851
330
A
100
AcDbEntity
  8
寸法線
100
AcDbLine
 10
1162.194791464146
 20
371.8078363340808
 30
0.0
 11
1219.857378269746
 21
371.8078363340808
 31
0.0
  0
LINE
  5
852
330
A
100
AcDbEntity
  8
寸法線
100
AcDbLine
 10
1162.194791464146
 20
321.8078363340808
 30
0.0
 11
1219.857378269746
 21
321.8078363340808
 31
0.0
  0
TEXT
  5
853
330
A
100
AcDbEntity
  8
寸法線
100
AcDbText
 10
1217.299044968146
 20
343.2800586622808
 30
0.0
 40
5.9972220421
  1
50
 50
90.0
100
AcDbText
  0
SOLID
  5
854
330
A
100
AcDbEntity
  8
寸法線
100
AcDbTrace
 10
591.0742001220458
 20
727.0773477654387
 30
0.0
 11
585.0742001220457
 21
725.5773477654387
 31
0.0
 12
585.0742001220457
 22
728.5773477654387
 32
0.0
 13
586.5742001220458
 23
727.0773477654387
 33
0.0
  0
LINE
  5
855
330
A
100
AcDbEntity
  8
寸法線
100
AcDbLine
 10
591.0742001220458
 20
727.0773477654387
 30
0.0
 11
588.0742001220458
 21
727.0773477654387
 31
0.0
  0
SOLID
  5
856
330
A
100
AcDbEntity
  8
寸法線
100
AcDbTrace
 10
541.0742001220458
 20
727.0773477654387
 30
0.0
 11
547.0742001220457
 21
728.5773477654387
 31
0.0
 12
547.0742001220457
 22
725.5773477654387
 32
0.0
 13
545.5742001220458
 23
727.0773477654387
 33
0.0
  0
LINE
  5
857
330
A
100
AcDbEntity
  8
寸法線
100
AcDbLine
 10
541.0742001220458
 20
727.0773477654387
 30
0.0
 11
544.0742001220455
 21
727.0773477654387
 31
0.0
  0
LINE
  5
858
330
A
100
AcDbEntity
  8
寸法線
100
AcDbLine
 10
541.0742001220458
 20
727.0773477654387
 30
0.0
 11
559.0186447783458
 21
727.0773477654387
 31
0.0
  0
LINE
  5
859
330
A
100
AcDbEntity
  8
寸法線
100
AcDbLine
 10
541.0742001220458
 20
727.0773477654387
 30
0.0
 11
573.1297554656457
 21
727.0773477654387
 31
0.0
  0
LINE
  5
85A
330
A
100
AcDbEntity
  8
寸法線
100
AcDbLine
 10
591.0742001220458
 20
727.0773477654387
 30
0.0
 11
559.0186447783458
 21
727.0773477654387
 31
0.0
  0
LINE
  5
85B
330
A
100
AcDbEntity
  8
寸法線
100
AcDbLine
 10
591.0742001220458
 20
727.0773477654387
 30
0.0
 11
573.1297554656457
 21
727.0773477654387
 31
0.0
  0
LINE
  5
85C
330
A
100
AcDbEntity
  8
寸法線
100
AcDbLine
 10
541.0742001220458
 20
679.1711159253385
 30
0.0
 11
541.0742001220458
 21
727.5773477654387
 31
0.0
  0
LINE
  5
85D
330
A
100
AcDbEntity
  8
寸法線
100
AcDbLine
 10
591.0742001220458
 20
679.1711159253385
 30
0.0
 11
591.0742001220458
 21
727.5773477654387
 31
0.0
  0
TEXT
  5
85E
330
A
100
AcDbEntity
  8
寸法線
100
AcDbText
 10
562.5464224502459
 20
729.1356810669388
 30
0.0
 40
5.9972220421
  1
50
100
AcDbText
  0
SOLID
  5
85F
330
A
100
AcDbEntity
  8
寸法線
100
AcDbTrace
 10
581.0742001220457
 20
713.7165415746387
 30
0.0
 11
575.0742001220458
 21
712.2165415746387
 31
0.0
 12
575.0742001220458
 22
715.2165415746387
 32
0.0
 13
576.5742001220457
 23
713.7165415746387
 33
0.0
  0
LINE
  5
860
330
A
100
AcDbEntity
  8
寸法線
100
AcDbLine
 10
581.0742001220457
 20
713.7165415746387
 30
0.0
 11
578.0742001220458
 21
713.7165415746387
 31
0.0
  0
SOLID
  5
861
330
A
100
AcDbEntity
  8
寸法線
100
AcDbTrace
 10
551.0742001220457
 20
713.7165415746387
 30
0.0
 11
557.0742001220458
 21
715.2165415746387
 31
0.0
 12
557.0742001220458
 22
712.2165415746387
 32
0.0
 13
555.5742001220457
 23
713.7165415746387
 33
0.0
  0
LINE
  5
862
330
A
100
AcDbEntity
  8
寸法線
100
AcDbLine
 10
551.0742001220457
 20
713.7165415746387
 30
0.0
 11
554.0742001220458
 21
713.7165415746387
 31
0.0
  0
LINE
  5
863
330
A
100
AcDbEntity
  8
寸法線
100
AcDbLine
 10
551.0742001220457
 20
713.7165415746387
 30
0.0
 11
559.0186447783458
 21
713.7165415746387
 31
0.0
  0
LINE
  5
864
330
A
100
AcDbEntity
  8
寸法線
100
AcDbLine
 10
551.0742001220457
 20
713.7165415746387
 30
0.0
 11
573.1297554656457
 21
713.7165415746387
 31
0.0
  0
LINE
  5
865
330
A
100
AcDbEntity
  8
寸法線
100
AcDbLine
 10
581.0742001220457
 20
713.7165415746387
 30
0.0
 11
559.0186447783458
 21
713.7165415746387
 31
0.0
  0
LINE
  5
866
330
A
100
AcDbEntity
  8
寸法線
100
AcDbLine
 10
581.0742001220457
 20
713.7165415746387
 30
0.0
 11
573.1297554656457
 21
713.7165415746387
 31
0.0
  0
LINE
  5
867
330
A
100
AcDbEntity
  8
寸法線
100
AcDbLine
 10
551.0742001220457
 20
656.6711159253387
 30
0.0
 11
551.0742001220457
 21
714.2165415746387
 31
0.0
  0
LINE
  5
868
330
A
100
AcDbEntity
  8
寸法線
100
AcDbLine
 10
581.0742001220457
 20
636.6711159253385
 30
0.0
 11
581.0742001220457
 21
714.2165415746387
 31
0.0
  0
TEXT
  5
869
330
A
100
AcDbEntity
  8
寸法線
100
AcDbText
 10
562.5464224502459
 20
715.7748748761386
 30
0.0
 40
5.9972220421
  1
30
100
AcDbText
  0
SOLID
  5
86A
330
A
100
AcDbEntity
  8
寸法線
100
AcDbTrace
 10
591.0742001220458
 20
713.7165415746387
 30
0.0
 11
597.0742001220457
 21
715.2165415746387
 31
0.0
 12
597.0742001220457
 22
712.2165415746387
 32
0.0
 13
595.5742001220458
 23
713.7165415746387
 33
0.0
  0
LINE
  5
86B
330
A
100
AcDbEntity
  8
寸法線
100
AcDbLine
 10
591.0742001220458
 20
713.7165415746387
 30
0.0
 11
594.0742001220457
 21
713.7165415746387
 31
0.0
  0
SOLID
  5
86C
330
A
100
AcDbEntity
  8
寸法線
100
AcDbTrace
 10
581.0742001220457
 20
713.7165415746387
 30
0.0
 11
575.0742001220458
 21
712.2165415746387
 31
0.0
 12
575.0742001220458
 22
715.2165415746387
 32
0.0
 13
576.5742001220457
 23
713.7165415746387
 33
0.0
  0
LINE
  5
86D
330
A
100
AcDbEntity
  8
寸法線
100
AcDbLine
 10
581.0742001220457
 20
713.7165415746387
 30
0.0
 11
578.0742001220458
 21
713.7165415746387
 31
0.0
  0
LINE
  5
86E
330
A
100
AcDbEntity
  8
寸法線
100
AcDbLine
 10
581.0742001220457
 20
713.7165415746387
 30
0.0
 11
581.0742001220457
 21
713.7165415746387
 31
0.0
  0
LINE
  5
86F
330
A
100
AcDbEntity
  8
寸法線
100
AcDbLine
 10
581.0742001220457
 20
713.7165415746387
 30
0.0
 11
591.0742001220458
 21
713.7165415746387
 31
0.0
  0
LINE
  5
870
330
A
100
AcDbEntity
  8
寸法線
100
AcDbLine
 10
591.0742001220458
 20
713.7165415746387
 30
0.0
 11
581.0742001220457
 21
713.7165415746387
 31
0.0
  0
LINE
  5
871
330
A
100
AcDbEntity
  8
寸法線
100
AcDbLine
 10
591.0742001220458
 20
713.7165415746387
 30
0.0
 11
591.0742001220458
 21
713.7165415746387
 31
0.0
  0
LINE
  5
872
330
A
100
AcDbEntity
  8
寸法線
100
AcDbLine
 10
581.0742001220457
 20
636.6711159253385
 30
0.0
 11
581.0742001220457
 21
714.2165415746387
 31
0.0
  0
LINE
  5
873
330
A
100
AcDbEntity
  8
寸法線
100
AcDbLine
 10
591.0742001220458
 20
679.1711159253385
 30
0.0
 11
591.0742001220458
 21
714.2165415746387
 31
0.0
  0
TEXT
  5
874
330
A
100
AcDbEntity
  8
寸法線
100
AcDbText
 10
582.5464224502459
 20
715.7748748761386
 30
0.0
 40
5.9972220421
  1
10
100
AcDbText
  0
SOLID
  5
875
330
A
100
AcDbEntity
  8
寸法線
100
AcDbTrace
 10
551.0742001220457
 20
713.7165415746387
 30
0.0
 11
557.0742001220458
 21
715.2165415746387
 31
0.0
 12
557.0742001220458
 22
712.2165415746387
 32
0.0
 13
555.5742001220457
 23
713.7165415746387
 33
0.0
  0
LINE
  5
876
330
A
100
AcDbEntity
  8
寸法線
100
AcDbLine
 10
551.0742001220457
 20
713.7165415746387
 30
0.0
 11
554.0742001220458
 21
713.7165415746387
 31
0.0
  0
SOLID
  5
877
330
A
100
AcDbEntity
  8
寸法線
100
AcDbTrace
 10
541.0742001220458
 20
713.7165415746387
 30
0.0
 11
535.0742001220456
 21
712.2165415746387
 31
0.0
 12
535.0742001220456
 22
715.2165415746387
 32
0.0
 13
536.5742001220458
 23
713.7165415746387
 33
0.0
  0
LINE
  5
878
330
A
100
AcDbEntity
  8
寸法線
100
AcDbLine
 10
541.0742001220458
 20
713.7165415746387
 30
0.0
 11
538.0742001220458
 21
713.7165415746387
 31
0.0
  0
LINE
  5
879
330
A
100
AcDbEntity
  8
寸法線
100
AcDbLine
 10
541.0742001220458
 20
713.7165415746387
 30
0.0
 11
541.0742001220458
 21
713.7165415746387
 31
0.0
  0
LINE
  5
87A
330
A
100
AcDbEntity
  8
寸法線
100
AcDbLine
 10
541.0742001220458
 20
713.7165415746387
 30
0.0
 11
551.0742001220457
 21
713.7165415746387
 31
0.0
  0
LINE
  5
87B
330
A
100
AcDbEntity
  8
寸法線
100
AcDbLine
 10
551.0742001220457
 20
713.7165415746387
 30
0.0
 11
541.0742001220458
 21
713.7165415746387
 31
0.0
  0
LINE
  5
87C
330
A
100
AcDbEntity
  8
寸法線
100
AcDbLine
 10
551.0742001220457
 20
713.7165415746387
 30
0.0
 11
551.0742001220457
 21
713.7165415746387
 31
0.0
  0
LINE
  5
87D
330
A
100
AcDbEntity
  8
寸法線
100
AcDbLine
 10
541.0742001220458
 20
679.1711159253385
 30
0.0
 11
541.0742001220458
 21
714.2165415746387
 31
0.0
  0
LINE
  5
87E
330
A
100
AcDbEntity
  8
寸法線
100
AcDbLine
 10
551.0742001220457
 20
656.6711159253387
 30
0.0
 11
551.0742001220457
 21
714.2165415746387
 31
0.0
  0
TEXT
  5
87F
330
A
100
AcDbEntity
  8
寸法線
100
AcDbText
 10
542.5464224502459
 20
715.7748748761386
 30
0.0
 40
5.9972220421
  1
10
100
AcDbText
  0
SOLID
  5
880
330
A
100
AcDbEntity
  8
寸法線
100
AcDbTrace
 10
568.5742001220457
 20
698.7011078481387
 30
0.0
 11
574.5742001220458
 21
700.2011078481387
 31
0.0
 12
574.5742001220458
 22
697.2011078481386
 32
0.0
 13
573.0742001220457
 23
698.7011078481387
 33
0.0
  0
LINE
  5
881
330
A
100
AcDbEntity
  8
寸法線
100
AcDbLine
 10
568.5742001220457
 20
698.7011078481387
 30
0.0
 11
571.5742001220458
 21
698.7011078481387
 31
0.0
  0
SOLID
  5
882
330
A
100
AcDbEntity
  8
寸法線
100
AcDbTrace
 10
563.5742001220457
 20
698.7011078481387
 30
0.0
 11
557.5742001220458
 21
697.2011078481386
 31
0.0
 12
557.5742001220458
 22
700.2011078481387
 32
0.0
 13
559.0742001220458
 23
698.7011078481387
 33
0.0
  0
LINE
  5
883
330
A
100
AcDbEntity
  8
寸法線
100
AcDbLine
 10
563.5742001220457
 20
698.7011078481387
 30
0.0
 11
560.5742001220455
 21
698.7011078481387
 31
0.0
  0
LINE
  5
884
330
A
100
AcDbEntity
  8
寸法線
100
AcDbLine
 10
563.5742001220457
 20
698.7011078481387
 30
0.0
 11
563.5742001220457
 21
698.7011078481387
 31
0.0
  0
LINE
  5
885
330
A
100
AcDbEntity
  8
寸法線
100
AcDbLine
 10
563.5742001220457
 20
698.7011078481387
 30
0.0
 11
568.5742001220457
 21
698.7011078481387
 31
0.0
  0
LINE
  5
886
330
A
100
AcDbEntity
  8
寸法線
100
AcDbLine
 10
568.5742001220457
 20
698.7011078481387
 30
0.0
 11
563.5742001220457
 21
698.7011078481387
 31
0.0
  0
LINE
  5
887
330
A
100
AcDbEntity
  8
寸法線
100
AcDbLine
 10
568.5742001220457
 20
698.7011078481387
 30
0.0
 11
568.5742001220457
 21
698.7011078481387
 31
0.0
  0
LINE
  5
888
330
A
100
AcDbEntity
  8
寸法線
100
AcDbLine
 10
563.5742001220457
 20
674.1711159253385
 30
0.0
 11
563.5742001220457
 21
699.2011078481387
 31
0.0
  0
LINE
  5
889
330
A
100
AcDbEntity
  8
寸法線
100
AcDbLine
 10
568.5742001220457
 20
674.1711159253385
 30
0.0
 11
568.5742001220457
 21
699.2011078481387
 31
0.0
  0
TEXT
  5
88A
330
A
100
AcDbEntity
  8
寸法線
100
AcDbText
 10
564.5013407584457
 20
700.7594411497384
 30
0.0
 40
5.9972220421
  1
5
100
AcDbText
  0
SOLID
  5
88B
330
A
100
AcDbEntity
  8
寸法線
100
AcDbTrace
 10
611.0742001220458
 20
448.1711159253388
 30
0.0
 11
609.5742001220457
 21
454.1711159253385
 31
0.0
 12
612.5742001220458
 22
454.1711159253385
 32
0.0
 13
611.0742001220458
 23
452.6711159253387
 33
0.0
  0
LINE
  5
88C
330
A
100
AcDbEntity
  8
寸法線
100
AcDbLine
 10
611.0742001220458
 20
448.1711159253388
 30
0.0
 11
611.0742001220458
 21
451.1711159253386
 31
0.0
  0
SOLID
  5
88D
330
A
100
AcDbEntity
  8
寸法線
100
AcDbTrace
 10
611.0742001220458
 20
588.1711159253385
 30
0.0
 11
612.5742001220458
 21
582.1711159253387
 31
0.0
 12
609.5742001220457
 22
582.1711159253387
 32
0.0
 13
611.0742001220458
 23
583.6711159253385
 33
0.0
  0
LINE
  5
88E
330
A
100
AcDbEntity
  8
寸法線
100
AcDbLine
 10
611.0742001220458
 20
588.1711159253385
 30
0.0
 11
611.0742001220458
 21
585.1711159253385
 31
0.0
  0
LINE
  5
88F
330
A
100
AcDbEntity
  8
寸法線
100
AcDbLine
 10
611.0742001220458
 20
588.1711159253385
 30
0.0
 11
611.0742001220458
 21
509.3516717458387
 31
0.0
  0
LINE
  5
890
330
A
100
AcDbEntity
  8
寸法線
100
AcDbLine
 10
611.0742001220458
 20
588.1711159253385
 30
0.0
 11
611.0742001220458
 21
526.9905601048386
 31
0.0
  0
LINE
  5
891
330
A
100
AcDbEntity
  8
寸法線
100
AcDbLine
 10
611.0742001220458
 20
448.1711159253388
 30
0.0
 11
611.0742001220458
 21
509.3516717458387
 31
0.0
  0
LINE
  5
892
330
A
100
AcDbEntity
  8
寸法線
100
AcDbLine
 10
611.0742001220458
 20
448.1711159253388
 30
0.0
 11
611.0742001220458
 21
526.9905601048386
 31
0.0
  0
LINE
  5
893
330
A
100
AcDbEntity
  8
寸法線
100
AcDbLine
 10
589.5742001220457
 20
588.1711159253385
 30
0.0
 11
611.5742001220458
 21
588.1711159253385
 31
0.0
  0
LINE
  5
894
330
A
100
AcDbEntity
  8
寸法線
100
AcDbLine
 10
574.5742001220458
 20
448.1711159253388
 30
0.0
 11
611.5742001220458
 21
448.1711159253388
 31
0.0
  0
TEXT
  5
895
330
A
100
AcDbEntity
  8
寸法線
100
AcDbText
 10
609.0158668204458
 20
512.8794494176387
 30
0.0
 40
5.9972220421
  1
140
 50
90.0
100
AcDbText
  0
SOLID
  5
896
330
A
100
AcDbEntity
  8
寸法線
100
AcDbTrace
 10
562.2671730162458
 20
452.1405673503386
 30
0.0
 11
556.4918960959458
 21
454.3532979020386
 31
0.0
 12
558.2126254050457
 22
456.8107540349386
 32
0.0
 13
558.5809888169458
 23
454.7216613139386
 33
0.0
  0
LINE
  5
897
330
A
100
AcDbEntity
  8
寸法線
100
AcDbLine
 10
562.2671730162458
 20
452.1405673503386
 30
0.0
 11
478.5993003037456
 21
510.7254425296385
 31
0.0
  0
TEXT
  5
898
330
A
100
AcDbEntity
  8
寸法線
100
AcDbText
 10
480.0157154054458
 20
512.7482929337388
 30
0.0
 40
5.9972220421
  1
5-Φ6穴　皿Φ11
 50
325.0
100
AcDbText
  0
SOLID
  5
899
330
A
100
AcDbEntity
  8
寸法線
100
AcDbTrace
 10
1196.162824817146
 20
428.1711159253386
 30
0.0
 11
1194.662824817146
 21
434.1711159253385
 31
0.0
 12
1197.662824817146
 22
434.1711159253385
 32
0.0
 13
1196.162824817146
 23
432.6711159253386
 33
0.0
  0
LINE
  5
89A
330
A
100
AcDbEntity
  8
寸法線
100
AcDbLine
 10
1196.162824817146
 20
428.1711159253386
 30
0.0
 11
1196.162824817146
 21
431.1711159253386
 31
0.0
  0
SOLID
  5
89B
330
A
100
AcDbEntity
  8
寸法線
100
AcDbTrace
 10
1196.162824817146
 20
678.1711159253385
 30
0.0
 11
1197.662824817146
 21
672.1711159253385
 31
0.0
 12
1194.662824817146
 22
672.1711159253385
 32
0.0
 13
1196.162824817146
 23
673.6711159253387
 33
0.0
  0
LINE
  5
89C
330
A
100
AcDbEntity
  8
寸法線
100
AcDbLine
 10
1196.162824817146
 20
678.1711159253385
 30
0.0
 11
1196.162824817146
 21
675.1711159253385
 31
0.0
  0
LINE
  5
89D
330
A
100
AcDbEntity
  8
寸法線
100
AcDbLine
 10
1196.162824817146
 20
678.1711159253385
 30
0.0
 11
1196.162824817146
 21
530.2405610585386
 31
0.0
  0
LINE
  5
89E
330
A
100
AcDbEntity
  8
寸法線
100
AcDbLine
 10
1196.162824817146
 20
678.1711159253385
 30
0.0
 11
1196.162824817146
 21
576.1016707921387
 31
0.0
  0
LINE
  5
89F
330
A
100
AcDbEntity
  8
寸法線
100
AcDbLine
 10
1196.162824817146
 20
428.1711159253386
 30
0.0
 11
1196.162824817146
 21
530.2405610585386
 31
0.0
  0
LINE
  5
8A0
330
A
100
AcDbEntity
  8
寸法線
100
AcDbLine
 10
1196.162824817146
 20
428.1711159253386
 30
0.0
 11
1196.162824817146
 21
576.1016707921387
 31
0.0
  0
LINE
  5
8A1
330
A
100
AcDbEntity
  8
寸法線
100
AcDbLine
 10
1157.694791464146
 20
678.1711159253385
 30
0.0
 11
1196.662824817146
 21
678.1711159253385
 31
0.0
  0
LINE
  5
8A2
330
A
100
AcDbEntity
  8
寸法線
100
AcDbLine
 10
1162.623396184645
 20
428.1711159253386
 30
0.0
 11
1196.662824817146
 21
428.1711159253386
 31
0.0
  0
TEXT
  5
8A3
330
A
100
AcDbEntity
  8
寸法線
100
AcDbText
 10
1194.104491515545
 20
533.7683387303385
 30
0.0
 40
5.9972220421
  1
250（壁側）
 50
90.0
100
AcDbText
  0
SOLID
  5
8A4
330
A
100
AcDbEntity
  8
寸法線
100
AcDbTrace
 10
1052.087597977846
 20
551.6197341916387
 30
0.0
 11
1049.379938984346
 21
546.0592861184387
 31
0.0
 12
1047.081805655046
 22
547.9876489475385
 32
0.0
 13
1049.195053734246
 23
548.1725341976384
 33
0.0
  0
LINE
  5
8A5
330
A
100
AcDbEntity
  8
寸法線
100
AcDbLine
 10
1052.087597977846
 20
551.6197341916387
 30
0.0
 11
1020.824610228346
 21
514.3619562260385
 31
0.0
  0
TEXT
  5
8A6
330
A
100
AcDbEntity
  8
寸法線
100
AcDbText
 10
1018.932906090946
 20
515.9492844700387
 30
0.0
 40
5.9972220421
  1
(R1000)
 50
50.0
100
AcDbText
  0
LINE
  5
8A7
330
A
100
AcDbEntity
  8
寸法線
100
AcDbLine
 10
665.194791464146
 20
673.1711159253385
 30
0.0
 11
1123.136103223146
 21
673.1711159253385
 31
0.0
  0
LINE
  5
8A8
330
A
100
AcDbEntity
  8
寸法線
100
AcDbLine
 10
1156.194791464145
 20
432.1711159253387
 30
0.0
 11
1156.194791464145
 21
640.1124276842387
 31
0.0
  0
ARC
  5
8A9
330
A
100
AcDbEntity
  8
寸法線
100
AcDbCircle
 10
1156.194791464145
 20
673.1711159253385
 30
0.0
 40
37.0586882411
100
AcDbArc
 50
180.0
 51
205.2206005704
  0
ARC
  5
8AA
330
A
100
AcDbEntity
  8
寸法線
100
AcDbCircle
 10
1156.194791464145
 20
673.1711159253385
 30
0.0
 40
37.0586882411
100
AcDbArc
 50
245.0277627097
 51
270.0
  0
SOLID
  5
8AB
330
A
100
AcDbEntity
  8
寸法線
100
AcDbTrace
 10
1119.136103223145
 20
673.1711159253385
 30
0.0
 11
1120.636103223145
 21
667.1711159253385
 31
0.0
 12
1117.636103223145
 22
667.1711159253385
 32
0.0
 13
1119.136103223145
 23
668.6711159253385
 33
0.0
  0
SOLID
  5
8AC
330
A
100
AcDbEntity
  8
寸法線
100
AcDbTrace
 10
1156.194791464145
 20
636.1124276842387
 30
0.0
 11
1150.194791464145
 21
634.6124276842386
 31
0.0
 12
1150.194791464145
 22
637.6124276842387
 32
0.0
 13
1151.694791464145
 23
636.1124276842387
 33
0.0
  0
ARC
  5
8AD
330
A
100
AcDbEntity
  8
寸法線
100
AcDbCircle
 10
1156.194791464145
 20
673.1711159253385
 30
0.0
 40
37.0586882411
100
AcDbArc
 50
256.4641489787998
 51
270.0
  0
ARC
  5
8AE
330
A
100
AcDbEntity
  8
寸法線
100
AcDbCircle
 10
1156.194791464145
 20
673.1711159253385
 30
0.0
 40
37.0586882411
100
AcDbArc
 50
180.0
 51
193.5358510212
  0
TEXT
  5
8AF
330
A
100
AcDbEntity
  8
寸法線
100
AcDbText
 10
1128.537516646145
 20
652.8935120395386
 30
0.0
 40
5.9972220421
  1
90%%d
 50
315.1241816401
100
AcDbText
  0
SOLID
  5
8B0
330
A
100
AcDbEntity
  8
寸法線
100
AcDbTrace
 10
1190.394410072646
 20
344.3078363340808
 30
0.0
 11
1191.894410072646
 21
338.3078363340808
 31
0.0
 12
1188.894410072646
 22
338.3078363340808
 32
0.0
 13
1190.394410072646
 23
339.8078363340808
 33
0.0
  0
LINE
  5
8B1
330
A
100
AcDbEntity
  8
寸法線
100
AcDbLine
 10
1190.394410072646
 20
344.3078363340808
 30
0.0
 11
1190.394410072646
 21
341.3078363340809
 31
0.0
  0
SOLID
  5
8B2
330
A
100
AcDbEntity
  8
寸法線
100
AcDbTrace
 10
1190.394410072646
 20
349.3078363340808
 30
0.0
 11
1188.894410072646
 21
355.3078363340808
 31
0.0
 12
1191.894410072646
 22
355.3078363340808
 32
0.0
 13
1190.394410072646
 23
353.8078363340809
 33
0.0
  0
LINE
  5
8B3
330
A
100
AcDbEntity
  8
寸法線
100
AcDbLine
 10
1190.394410072646
 20
349.3078363340808
 30
0.0
 11
1190.394410072646
 21
352.3078363340808
 31
0.0
  0
LINE
  5
8B4
330
A
100
AcDbEntity
  8
寸法線
100
AcDbLine
 10
1190.394410072646
 20
349.3078363340808
 30
0.0
 11
1190.394410072646
 21
349.3078363340808
 31
0.0
  0
LINE
  5
8B5
330
A
100
AcDbEntity
  8
寸法線
100
AcDbLine
 10
1190.394410072646
 20
349.3078363340808
 30
0.0
 11
1190.394410072646
 21
344.3078363340808
 31
0.0
  0
LINE
  5
8B6
330
A
100
AcDbEntity
  8
寸法線
100
AcDbLine
 10
1190.394410072646
 20
344.3078363340808
 30
0.0
 11
1190.394410072646
 21
349.3078363340808
 31
0.0
  0
LINE
  5
8B7
330
A
100
AcDbEntity
  8
寸法線
100
AcDbLine
 10
1190.394410072646
 20
344.3078363340808
 30
0.0
 11
1190.394410072646
 21
344.3078363340808
 31
0.0
  0
LINE
  5
8B8
330
A
100
AcDbEntity
  8
寸法線
100
AcDbLine
 10
1157.194791464146
 20
349.3078363340808
 30
0.0
 11
1190.894410072646
 21
349.3078363340808
 31
0.0
  0
LINE
  5
8B9
330
A
100
AcDbEntity
  8
寸法線
100
AcDbLine
 10
1157.194791464146
 20
344.3078363340808
 30
0.0
 11
1190.894410072646
 21
344.3078363340808
 31
0.0
  0
TEXT
  5
8BA
330
A
100
AcDbEntity
  8
寸法線
100
AcDbText
 10
1188.336076771046
 20
345.0439474981808
 30
0.0
 40
5.9972220421
  1
5
 50
90.0
100
AcDbText
  0
SOLID
  5
8BB
330
A
100
AcDbEntity
  8
寸法線
100
AcDbTrace
 10
782.2410051894458
 20
413.6149465935385
 30
0.0
 11
788.2410051894457
 21
415.1149465935386
 31
0.0
 12
788.2410051894457
 22
412.1149465935387
 32
0.0
 13
786.7410051894458
 23
413.6149465935385
 33
0.0
  0
LINE
  5
8BC
330
A
100
AcDbEntity
  8
寸法線
100
AcDbLine
 10
782.2410051894458
 20
413.6149465935385
 30
0.0
 11
785.2410051894458
 21
413.6149465935385
 31
0.0
  0
SOLID
  5
8BD
330
A
100
AcDbEntity
  8
寸法線
100
AcDbTrace
 10
1156.194791464145
 20
413.6149465935385
 30
0.0
 11
1150.194791464145
 21
412.1149465935387
 31
0.0
 12
1150.194791464145
 22
415.1149465935386
 32
0.0
 13
1151.694791464145
 23
413.6149465935385
 33
0.0
  0
LINE
  5
8BE
330
A
100
AcDbEntity
  8
寸法線
100
AcDbLine
 10
1156.194791464145
 20
413.6149465935385
 30
0.0
 11
1153.194791464146
 21
413.6149465935385
 31
0.0
  0
LINE
  5
8BF
330
A
100
AcDbEntity
  8
寸法線
100
AcDbLine
 10
1156.194791464145
 20
413.6149465935385
 30
0.0
 11
949.8151211318459
 21
413.6149465935385
 31
0.0
  0
LINE
  5
8C0
330
A
100
AcDbEntity
  8
寸法線
100
AcDbLine
 10
1156.194791464145
 20
413.6149465935385
 30
0.0
 11
988.6206755218459
 21
413.6149465935385
 31
0.0
  0
LINE
  5
8C1
330
A
100
AcDbEntity
  8
寸法線
100
AcDbLine
 10
782.2410051894458
 20
413.6149465935385
 30
0.0
 11
949.8151211318459
 21
413.6149465935385
 31
0.0
  0
LINE
  5
8C2
330
A
100
AcDbEntity
  8
寸法線
100
AcDbLine
 10
782.2410051894458
 20
413.6149465935385
 30
0.0
 11
988.6206755218459
 21
413.6149465935385
 31
0.0
  0
LINE
  5
8C3
330
A
100
AcDbEntity
  8
寸法線
100
AcDbLine
 10
1156.194791464145
 20
427.1711159253386
 30
0.0
 11
1156.194791464145
 21
413.1149465935386
 31
0.0
  0
LINE
  5
8C4
330
A
100
AcDbEntity
  8
寸法線
100
AcDbLine
 10
782.2410051894458
 20
672.1711159253385
 30
0.0
 11
782.2410051894458
 21
413.1149465935386
 31
0.0
  0
TEXT
  5
8C5
330
A
100
AcDbEntity
  8
寸法線
100
AcDbText
 10
953.3428988036458
 20
415.6732798950385
 30
0.0
 40
5.9972220421
  1
補強(375)
100
AcDbText
  0
SOLID
  5
8C6
330
A
100
AcDbEntity
  8
寸法線
100
AcDbTrace
 10
641.1947914641459
 20
673.1711159253385
 30
0.0
 11
642.6947914641457
 21
667.1711159253385
 31
0.0
 12
639.6947914641457
 22
667.1711159253385
 32
0.0
 13
641.1947914641459
 23
668.6711159253385
 33
0.0
  0
LINE
  5
8C7
330
A
100
AcDbEntity
  8
寸法線
100
AcDbLine
 10
641.1947914641459
 20
673.1711159253385
 30
0.0
 11
641.1947914641459
 21
670.1711159253385
 31
0.0
  0
SOLID
  5
8C8
330
A
100
AcDbEntity
  8
寸法線
100
AcDbTrace
 10
641.1947914641459
 20
478.1711159253386
 30
0.0
 11
639.6947914641457
 21
484.1711159253385
 31
0.0
 12
642.6947914641457
 22
484.1711159253385
 32
0.0
 13
641.1947914641459
 23
482.6711159253386
 33
0.0
  0
LINE
  5
8C9
330
A
100
AcDbEntity
  8
寸法線
100
AcDbLine
 10
641.1947914641459
 20
478.1711159253386
 30
0.0
 11
641.1947914641459
 21
481.1711159253388
 31
0.0
  0
LINE
  5
8CA
330
A
100
AcDbEntity
  8
寸法線
100
AcDbLine
 10
641.1947914641459
 20
478.1711159253386
 30
0.0
 11
641.1947914641459
 21
556.2683387303385
 31
0.0
  0
LINE
  5
8CB
330
A
100
AcDbEntity
  8
寸法線
100
AcDbLine
 10
641.1947914641459
 20
478.1711159253386
 30
0.0
 11
641.1947914641459
 21
595.0738931203385
 31
0.0
  0
LINE
  5
8CC
330
A
100
AcDbEntity
  8
寸法線
100
AcDbLine
 10
641.1947914641459
 20
673.1711159253385
 30
0.0
 11
641.1947914641459
 21
556.2683387303385
 31
0.0
  0
LINE
  5
8CD
330
A
100
AcDbEntity
  8
寸法線
100
AcDbLine
 10
641.1947914641459
 20
673.1711159253385
 30
0.0
 11
641.1947914641459
 21
595.0738931203385
 31
0.0
  0
LINE
  5
8CE
330
A
100
AcDbEntity
  8
寸法線
100
AcDbLine
 10
1155.194791464146
 20
478.1711159253386
 30
0.0
 11
640.694791464146
 21
478.1711159253386
 31
0.0
  0
LINE
  5
8CF
330
A
100
AcDbEntity
  8
寸法線
100
AcDbLine
 10
660.1947914641457
 20
673.1711159253385
 30
0.0
 11
640.694791464146
 21
673.1711159253385
 31
0.0
  0
TEXT
  5
8D0
330
A
100
AcDbEntity
  8
寸法線
100
AcDbText
 10
639.1364581626456
 20
559.7961164021386
 30
0.0
 40
5.9972220421
  1
補強(195)
 50
90.0
100
AcDbText
  0
SOLID
  5
8D1
330
A
100
AcDbEntity
  8
寸法線
100
AcDbTrace
 10
1091.194791464145
 20
297.1289762163809
 30
0.0
 11
1085.194791464146
 21
295.6289762163809
 31
0.0
 12
1085.194791464146
 22
298.6289762163809
 32
0.0
 13
1086.694791464146
 23
297.1289762163809
 33
0.0
  0
LINE
  5
8D2
330
A
100
AcDbEntity
  8
寸法線
100
AcDbLine
 10
1091.194791464145
 20
297.1289762163809
 30
0.0
 11
1088.194791464146
 21
297.1289762163809
 31
0.0
  0
SOLID
  5
8D3
330
A
100
AcDbEntity
  8
寸法線
100
AcDbTrace
 10
956.1947914641459
 20
297.1289762163809
 30
0.0
 11
962.1947914641459
 21
298.6289762163809
 31
0.0
 12
962.1947914641459
 22
295.6289762163809
 32
0.0
 13
960.6947914641459
 23
297.1289762163809
 33
0.0
  0
LINE
  5
8D4
330
A
100
AcDbEntity
  8
寸法線
100
AcDbLine
 10
956.1947914641459
 20
297.1289762163809
 30
0.0
 11
959.194791464146
 21
297.1289762163809
 31
0.0
  0
LINE
  5
8D5
330
A
100
AcDbEntity
  8
寸法線
100
AcDbLine
 10
956.1947914641459
 20
297.1289762163809
 30
0.0
 11
1014.875347284646
 21
297.1289762163809
 31
0.0
  0
LINE
  5
8D6
330
A
100
AcDbEntity
  8
寸法線
100
AcDbLine
 10
956.1947914641459
 20
297.1289762163809
 30
0.0
 11
1032.514235643646
 21
297.1289762163809
 31
0.0
  0
LINE
  5
8D7
330
A
100
AcDbEntity
  8
寸法線
100
AcDbLine
 10
1091.194791464145
 20
297.1289762163809
 30
0.0
 11
1014.875347284646
 21
297.1289762163809
 31
0.0
  0
LINE
  5
8D8
330
A
100
AcDbEntity
  8
寸法線
100
AcDbLine
 10
1091.194791464145
 20
297.1289762163809
 30
0.0
 11
1032.514235643646
 21
297.1289762163809
 31
0.0
  0
LINE
  5
8D9
330
A
100
AcDbEntity
  8
寸法線
100
AcDbLine
 10
956.1947914641459
 20
323.3078363340808
 30
0.0
 11
956.1947914641459
 21
296.6289762163809
 31
0.0
  0
LINE
  5
8DA
330
A
100
AcDbEntity
  8
寸法線
100
AcDbLine
 10
1091.194791464145
 20
353.3078363340808
 30
0.0
 11
1091.194791464145
 21
296.6289762163809
 31
0.0
  0
TEXT
  5
8DB
330
A
100
AcDbEntity
  8
寸法線
100
AcDbText
 10
1018.403124956446
 20
299.1873095178807
 30
0.0
 40
5.9972220421
  1
135
100
AcDbText
  0
SOLID
  5
8DC
330
A
100
AcDbEntity
  8
寸法線
100
AcDbTrace
 10
611.0742001220458
 20
628.1711159253385
 30
0.0
 11
612.5742001220458
 21
622.1711159253385
 31
0.0
 12
609.5742001220457
 22
622.1711159253385
 32
0.0
 13
611.0742001220458
 23
623.6711159253387
 33
0.0
  0
LINE
  5
8DD
330
A
100
AcDbEntity
  8
寸法線
100
AcDbLine
 10
611.0742001220458
 20
628.1711159253385
 30
0.0
 11
611.0742001220458
 21
625.1711159253385
 31
0.0
  0
SOLID
  5
8DE
330
A
100
AcDbEntity
  8
寸法線
100
AcDbTrace
 10
611.0742001220458
 20
648.1711159253385
 30
0.0
 11
609.5742001220457
 21
654.1711159253385
 31
0.0
 12
612.5742001220458
 22
654.1711159253385
 32
0.0
 13
611.0742001220458
 23
652.6711159253387
 33
0.0
  0
LINE
  5
8DF
330
A
100
AcDbEntity
  8
寸法線
100
AcDbLine
 10
611.0742001220458
 20
648.1711159253385
 30
0.0
 11
611.0742001220458
 21
651.1711159253385
 31
0.0
  0
LINE
  5
8E0
330
A
100
AcDbEntity
  8
寸法線
100
AcDbLine
 10
611.0742001220458
 20
648.1711159253385
 30
0.0
 11
611.0742001220458
 21
631.1155605817386
 31
0.0
  0
LINE
  5
8E1
330
A
100
AcDbEntity
  8
寸法線
100
AcDbLine
 10
611.0742001220458
 20
648.1711159253385
 30
0.0
 11
611.0742001220458
 21
645.2266712689387
 31
0.0
  0
LINE
  5
8E2
330
A
100
AcDbEntity
  8
寸法線
100
AcDbLine
 10
611.0742001220458
 20
628.1711159253385
 30
0.0
 11
611.0742001220458
 21
631.1155605817386
 31
0.0
  0
LINE
  5
8E3
330
A
100
AcDbEntity
  8
寸法線
100
AcDbLine
 10
611.0742001220458
 20
628.1711159253385
 30
0.0
 11
611.0742001220458
 21
645.2266712689387
 31
0.0
  0
LINE
  5
8E4
330
A
100
AcDbEntity
  8
寸法線
100
AcDbLine
 10
559.5742001220457
 20
648.1711159253385
 30
0.0
 11
611.5742001220458
 21
648.1711159253385
 31
0.0
  0
LINE
  5
8E5
330
A
100
AcDbEntity
  8
寸法線
100
AcDbLine
 10
589.5742001220457
 20
628.1711159253385
 30
0.0
 11
611.5742001220458
 21
628.1711159253385
 31
0.0
  0
TEXT
  5
8E6
330
A
100
AcDbEntity
  8
寸法線
100
AcDbText
 10
609.0158668204458
 20
634.6433382535387
 30
0.0
 40
5.9972220421
  1
20
 50
90.0
100
AcDbText
  0
SOLID
  5
8E7
330
A
100
AcDbEntity
  8
寸法線
100
AcDbTrace
 10
611.0742001220458
 20
428.1711159253386
 30
0.0
 11
612.5742001220458
 21
422.1711159253386
 31
0.0
 12
609.5742001220457
 22
422.1711159253386
 32
0.0
 13
611.0742001220458
 23
423.6711159253387
 33
0.0
  0
LINE
  5
8E8
330
A
100
AcDbEntity
  8
寸法線
100
AcDbLine
 10
611.0742001220458
 20
428.1711159253386
 30
0.0
 11
611.0742001220458
 21
425.1711159253385
 31
0.0
  0
SOLID
  5
8E9
330
A
100
AcDbEntity
  8
寸法線
100
AcDbTrace
 10
611.0742001220458
 20
448.1711159253388
 30
0.0
 11
609.5742001220457
 21
454.1711159253385
 31
0.0
 12
612.5742001220458
 22
454.1711159253385
 32
0.0
 13
611.0742001220458
 23
452.6711159253387
 33
0.0
  0
LINE
  5
8EA
330
A
100
AcDbEntity
  8
寸法線
100
AcDbLine
 10
611.0742001220458
 20
448.1711159253388
 30
0.0
 11
611.0742001220458
 21
451.1711159253386
 31
0.0
  0
LINE
  5
8EB
330
A
100
AcDbEntity
  8
寸法線
100
AcDbLine
 10
611.0742001220458
 20
448.1711159253388
 30
0.0
 11
611.0742001220458
 21
431.1155605817386
 31
0.0
  0
LINE
  5
8EC
330
A
100
AcDbEntity
  8
寸法線
100
AcDbLine
 10
611.0742001220458
 20
448.1711159253388
 30
0.0
 11
611.0742001220458
 21
445.2266712689386
 31
0.0
  0
LINE
  5
8ED
330
A
100
AcDbEntity
  8
寸法線
100
AcDbLine
 10
611.0742001220458
 20
428.1711159253386
 30
0.0
 11
611.0742001220458
 21
431.1155605817386
 31
0.0
  0
LINE
  5
8EE
330
A
100
AcDbEntity
  8
寸法線
100
AcDbLine
 10
611.0742001220458
 20
428.1711159253386
 30
0.0
 11
611.0742001220458
 21
445.2266712689386
 31
0.0
  0
LINE
  5
8EF
330
A
100
AcDbEntity
  8
寸法線
100
AcDbLine
 10
574.5742001220458
 20
448.1711159253388
 30
0.0
 11
611.5742001220458
 21
448.1711159253388
 31
0.0
  0
LINE
  5
8F0
330
A
100
AcDbEntity
  8
寸法線
100
AcDbLine
 10
567.0742001220458
 20
428.1711159253386
 30
0.0
 11
611.5742001220458
 21
428.1711159253386
 31
0.0
  0
TEXT
  5
8F1
330
A
100
AcDbEntity
  8
寸法線
100
AcDbText
 10
609.0158668204458
 20
434.6433382535386
 30
0.0
 40
5.9972220421
  1
20
 50
90.0
100
AcDbText
  0
SOLID
  5
8F2
330
A
100
AcDbEntity
  8
寸法線
100
AcDbTrace
 10
611.0742001220458
 20
648.1711159253385
 30
0.0
 11
609.5742001220457
 21
654.1711159253385
 31
0.0
 12
612.5742001220458
 22
654.1711159253385
 32
0.0
 13
611.0742001220458
 23
652.6711159253387
 33
0.0
  0
LINE
  5
8F3
330
A
100
AcDbEntity
  8
寸法線
100
AcDbLine
 10
611.0742001220458
 20
648.1711159253385
 30
0.0
 11
611.0742001220458
 21
651.1711159253385
 31
0.0
  0
SOLID
  5
8F4
330
A
100
AcDbEntity
  8
寸法線
100
AcDbTrace
 10
611.0742001220458
 20
678.1711159253385
 30
0.0
 11
612.5742001220458
 21
672.1711159253385
 31
0.0
 12
609.5742001220457
 22
672.1711159253385
 32
0.0
 13
611.0742001220458
 23
673.6711159253387
 33
0.0
  0
LINE
  5
8F5
330
A
100
AcDbEntity
  8
寸法線
100
AcDbLine
 10
611.0742001220458
 20
678.1711159253385
 30
0.0
 11
611.0742001220458
 21
675.1711159253385
 31
0.0
  0
LINE
  5
8F6
330
A
100
AcDbEntity
  8
寸法線
100
AcDbLine
 10
611.0742001220458
 20
678.1711159253385
 30
0.0
 11
611.0742001220458
 21
656.1155605817386
 31
0.0
  0
LINE
  5
8F7
330
A
100
AcDbEntity
  8
寸法線
100
AcDbLine
 10
611.0742001220458
 20
678.1711159253385
 30
0.0
 11
611.0742001220458
 21
670.2266712689387
 31
0.0
  0
LINE
  5
8F8
330
A
100
AcDbEntity
  8
寸法線
100
AcDbLine
 10
611.0742001220458
 20
648.1711159253385
 30
0.0
 11
611.0742001220458
 21
656.1155605817386
 31
0.0
  0
LINE
  5
8F9
330
A
100
AcDbEntity
  8
寸法線
100
AcDbLine
 10
611.0742001220458
 20
648.1711159253385
 30
0.0
 11
611.0742001220458
 21
670.2266712689387
 31
0.0
  0
LINE
  5
8FA
330
A
100
AcDbEntity
  8
寸法線
100
AcDbLine
 10
592.0742001220458
 20
678.1711159253385
 30
0.0
 11
611.5742001220458
 21
678.1711159253385
 31
0.0
  0
LINE
  5
8FB
330
A
100
AcDbEntity
  8
寸法線
100
AcDbLine
 10
559.5742001220457
 20
648.1711159253385
 30
0.0
 11
611.5742001220458
 21
648.1711159253385
 31
0.0
  0
TEXT
  5
8FC
330
A
100
AcDbEntity
  8
寸法線
100
AcDbText
 10
609.0158668204458
 20
659.6433382535387
 30
0.0
 40
5.9972220421
  1
30
 50
90.0
100
AcDbText
  0
SOLID
  5
8FD
330
A
100
AcDbEntity
  8
寸法線
100
AcDbTrace
 10
611.0742001220458
 20
588.1711159253385
 30
0.0
 11
612.5742001220458
 21
582.1711159253387
 31
0.0
 12
609.5742001220457
 22
582.1711159253387
 32
0.0
 13
611.0742001220458
 23
583.6711159253385
 33
0.0
  0
LINE
  5
8FE
330
A
100
AcDbEntity
  8
寸法線
100
AcDbLine
 10
611.0742001220458
 20
588.1711159253385
 30
0.0
 11
611.0742001220458
 21
585.1711159253385
 31
0.0
  0
SOLID
  5
8FF
330
A
100
AcDbEntity
  8
寸法線
100
AcDbTrace
 10
611.0742001220458
 20
608.1711159253385
 30
0.0
 11
609.5742001220457
 21
614.1711159253385
 31
0.0
 12
612.5742001220458
 22
614.1711159253385
 32
0.0
 13
611.0742001220458
 23
612.6711159253385
 33
0.0
  0
LINE
  5
900
330
A
100
AcDbEntity
  8
寸法線
100
AcDbLine
 10
611.0742001220458
 20
608.1711159253385
 30
0.0
 11
611.0742001220458
 21
611.1711159253387
 31
0.0
  0
LINE
  5
901
330
A
100
AcDbEntity
  8
寸法線
100
AcDbLine
 10
611.0742001220458
 20
608.1711159253385
 30
0.0
 11
611.0742001220458
 21
591.1155605817387
 31
0.0
  0
LINE
  5
902
330
A
100
AcDbEntity
  8
寸法線
100
AcDbLine
 10
611.0742001220458
 20
608.1711159253385
 30
0.0
 11
611.0742001220458
 21
605.2266712689387
 31
0.0
  0
LINE
  5
903
330
A
100
AcDbEntity
  8
寸法線
100
AcDbLine
 10
611.0742001220458
 20
588.1711159253385
 30
0.0
 11
611.0742001220458
 21
591.1155605817387
 31
0.0
  0
LINE
  5
904
330
A
100
AcDbEntity
  8
寸法線
100
AcDbLine
 10
611.0742001220458
 20
588.1711159253385
 30
0.0
 11
611.0742001220458
 21
605.2266712689387
 31
0.0
  0
LINE
  5
905
330
A
100
AcDbEntity
  8
寸法線
100
AcDbLine
 10
559.5742001220457
 20
608.1711159253385
 30
0.0
 11
611.5742001220458
 21
608.1711159253385
 31
0.0
  0
LINE
  5
906
330
A
100
AcDbEntity
  8
寸法線
100
AcDbLine
 10
589.5742001220457
 20
588.1711159253385
 30
0.0
 11
611.5742001220458
 21
588.1711159253385
 31
0.0
  0
TEXT
  5
907
330
A
100
AcDbEntity
  8
寸法線
100
AcDbText
 10
609.0158668204458
 20
594.6433382535388
 30
0.0
 40
5.9972220421
  1
20
 50
90.0
100
AcDbText
  0
SOLID
  5
908
330
A
100
AcDbEntity
  8
寸法線
100
AcDbTrace
 10
611.0742001220458
 20
608.1711159253385
 30
0.0
 11
612.5742001220458
 21
602.1711159253385
 31
0.0
 12
609.5742001220457
 22
602.1711159253385
 32
0.0
 13
611.0742001220458
 23
603.6711159253385
 33
0.0
  0
LINE
  5
909
330
A
100
AcDbEntity
  8
寸法線
100
AcDbLine
 10
611.0742001220458
 20
608.1711159253385
 30
0.0
 11
611.0742001220458
 21
605.1711159253385
 31
0.0
  0
SOLID
  5
90A
330
A
100
AcDbEntity
  8
寸法線
100
AcDbTrace
 10
611.0742001220458
 20
628.1711159253385
 30
0.0
 11
609.5742001220457
 21
634.1711159253385
 31
0.0
 12
612.5742001220458
 22
634.1711159253385
 32
0.0
 13
611.0742001220458
 23
632.6711159253385
 33
0.0
  0
LINE
  5
90B
330
A
100
AcDbEntity
  8
寸法線
100
AcDbLine
 10
611.0742001220458
 20
628.1711159253385
 30
0.0
 11
611.0742001220458
 21
631.1711159253385
 31
0.0
  0
LINE
  5
90C
330
A
100
AcDbEntity
  8
寸法線
100
AcDbLine
 10
611.0742001220458
 20
628.1711159253385
 30
0.0
 11
611.0742001220458
 21
611.1155605817387
 31
0.0
  0
LINE
  5
90D
330
A
100
AcDbEntity
  8
寸法線
100
AcDbLine
 10
611.0742001220458
 20
628.1711159253385
 30
0.0
 11
611.0742001220458
 21
625.2266712689387
 31
0.0
  0
LINE
  5
90E
330
A
100
AcDbEntity
  8
寸法線
100
AcDbLine
 10
611.0742001220458
 20
608.1711159253385
 30
0.0
 11
611.0742001220458
 21
611.1155605817387
 31
0.0
  0
LINE
  5
90F
330
A
100
AcDbEntity
  8
寸法線
100
AcDbLine
 10
611.0742001220458
 20
608.1711159253385
 30
0.0
 11
611.0742001220458
 21
625.2266712689387
 31
0.0
  0
LINE
  5
910
330
A
100
AcDbEntity
  8
寸法線
100
AcDbLine
 10
589.5742001220457
 20
628.1711159253385
 30
0.0
 11
611.5742001220458
 21
628.1711159253385
 31
0.0
  0
LINE
  5
911
330
A
100
AcDbEntity
  8
寸法線
100
AcDbLine
 10
559.5742001220457
 20
608.1711159253385
 30
0.0
 11
611.5742001220458
 21
608.1711159253385
 31
0.0
  0
TEXT
  5
912
330
A
100
AcDbEntity
  8
寸法線
100
AcDbText
 10
609.0158668204458
 20
614.6433382535388
 30
0.0
 40
5.9972220421
  1
20
 50
90.0
100
AcDbText
  0
SOLID
  5
913
330
A
100
AcDbEntity
  8
寸法線
100
AcDbTrace
 10
1086.023926394168
 20
363.6819106196696
 30
0.0
 11
1079.872740454516
 21
364.3244925484867
 31
0.0
 12
1080.898800884433
 22
367.1435704108627
 32
0.0
 13
1081.795309600627
 23
365.2210012646548
 33
0.0
  0
LINE
  5
914
330
A
100
AcDbEntity
  8
寸法線
100
AcDbLine
 10
1086.023926394168
 20
363.6819106196696
 30
0.0
 11
1009.962301034861
 21
391.3660782203978
 31
0.0
  0
TEXT
  5
915
330
A
100
AcDbEntity
  8
寸法線
100
AcDbText
 10
1010.806900752339
 20
393.6865968726246
 30
0.0
 40
5.9972220421
  1
4-Φ6穴　皿Φ11
 50
339.9999999999999
100
AcDbText
  0
SOLID
  5
916
330
A
100
AcDbEntity
  8
寸法線
100
AcDbTrace
 10
816.1947914641459
 20
297.1289762163809
 30
0.0
 11
810.194791464146
 21
295.6289762163809
 31
0.0
 12
810.194791464146
 22
298.6289762163809
 32
0.0
 13
811.6947914641459
 23
297.1289762163809
 33
0.0
  0
LINE
  5
917
330
A
100
AcDbEntity
  8
寸法線
100
AcDbLine
 10
816.1947914641459
 20
297.1289762163809
 30
0.0
 11
813.1947914641457
 21
297.1289762163809
 31
0.0
  0
SOLID
  5
918
330
A
100
AcDbEntity
  8
寸法線
100
AcDbTrace
 10
681.1947914641457
 20
297.1289762163809
 30
0.0
 11
687.1947914641459
 21
298.6289762163809
 31
0.0
 12
687.1947914641459
 22
295.6289762163809
 32
0.0
 13
685.6947914641457
 23
297.1289762163809
 33
0.0
  0
LINE
  5
919
330
A
100
AcDbEntity
  8
寸法線
100
AcDbLine
 10
681.1947914641457
 20
297.1289762163809
 30
0.0
 11
684.1947914641457
 21
297.1289762163809
 31
0.0
  0
LINE
  5
91A
330
A
100
AcDbEntity
  8
寸法線
100
AcDbLine
 10
681.1947914641457
 20
297.1289762163809
 30
0.0
 11
739.8753472846457
 21
297.1289762163809
 31
0.0
  0
LINE
  5
91B
330
A
100
AcDbEntity
  8
寸法線
100
AcDbLine
 10
681.1947914641457
 20
297.1289762163809
 30
0.0
 11
757.5142356436457
 21
297.1289762163809
 31
0.0
  0
LINE
  5
91C
330
A
100
AcDbEntity
  8
寸法線
100
AcDbLine
 10
816.1947914641459
 20
297.1289762163809
 30
0.0
 11
739.8753472846457
 21
297.1289762163809
 31
0.0
  0
LINE
  5
91D
330
A
100
AcDbEntity
  8
寸法線
100
AcDbLine
 10
816.1947914641459
 20
297.1289762163809
 30
0.0
 11
757.5142356436457
 21
297.1289762163809
 31
0.0
  0
LINE
  5
91E
330
A
100
AcDbEntity
  8
寸法線
100
AcDbLine
 10
681.1947914641457
 20
338.3078363340808
 30
0.0
 11
681.1947914641457
 21
296.6289762163809
 31
0.0
  0
LINE
  5
91F
330
A
100
AcDbEntity
  8
寸法線
100
AcDbLine
 10
816.1947914641459
 20
353.3078363340808
 30
0.0
 11
816.1947914641459
 21
296.6289762163809
 31
0.0
  0
TEXT
  5
920
330
A
100
AcDbEntity
  8
寸法線
100
AcDbText
 10
743.4031249564459
 20
299.1873095178807
 30
0.0
 40
5.9972220421
  1
135
100
AcDbText
  0
SOLID
  5
921
330
A
100
AcDbEntity
  8
寸法線
100
AcDbTrace
 10
681.1947914641457
 20
297.1289762163809
 30
0.0
 11
687.1947914641459
 21
298.6289762163809
 31
0.0
 12
687.1947914641459
 22
295.6289762163809
 32
0.0
 13
685.6947914641457
 23
297.1289762163809
 33
0.0
  0
LINE
  5
922
330
A
100
AcDbEntity
  8
寸法線
100
AcDbLine
 10
681.1947914641457
 20
297.1289762163809
 30
0.0
 11
684.1947914641457
 21
297.1289762163809
 31
0.0
  0
SOLID
  5
923
330
A
100
AcDbEntity
  8
寸法線
100
AcDbTrace
 10
661.194791464146
 20
297.1289762163809
 30
0.0
 11
655.1947914641457
 21
295.6289762163809
 31
0.0
 12
655.1947914641457
 22
298.6289762163809
 32
0.0
 13
656.694791464146
 23
297.1289762163809
 33
0.0
  0
LINE
  5
924
330
A
100
AcDbEntity
  8
寸法線
100
AcDbLine
 10
661.194791464146
 20
297.1289762163809
 30
0.0
 11
658.1947914641459
 21
297.1289762163809
 31
0.0
  0
LINE
  5
925
330
A
100
AcDbEntity
  8
寸法線
100
AcDbLine
 10
661.194791464146
 20
297.1289762163809
 30
0.0
 11
664.5487413288456
 21
297.1289762163809
 31
0.0
  0
LINE
  5
926
330
A
100
AcDbEntity
  8
寸法線
100
AcDbLine
 10
661.194791464146
 20
297.1289762163809
 30
0.0
 11
678.6598520161458
 21
297.1289762163809
 31
0.0
  0
LINE
  5
927
330
A
100
AcDbEntity
  8
寸法線
100
AcDbLine
 10
681.1947914641457
 20
297.1289762163809
 30
0.0
 11
664.5487413288456
 21
297.1289762163809
 31
0.0
  0
LINE
  5
928
330
A
100
AcDbEntity
  8
寸法線
100
AcDbLine
 10
681.1947914641457
 20
297.1289762163809
 30
0.0
 11
678.6598520161458
 21
297.1289762163809
 31
0.0
  0
LINE
  5
929
330
A
100
AcDbEntity
  8
寸法線
100
AcDbLine
 10
661.194791464146
 20
345.8078363340808
 30
0.0
 11
661.194791464146
 21
296.6289762163809
 31
0.0
  0
LINE
  5
92A
330
A
100
AcDbEntity
  8
寸法線
100
AcDbLine
 10
681.1947914641457
 20
338.3078363340808
 30
0.0
 11
681.1947914641457
 21
296.6289762163809
 31
0.0
  0
TEXT
  5
92B
330
A
100
AcDbEntity
  8
寸法線
100
AcDbText
 10
668.0765190006459
 20
299.1873095178807
 30
0.0
 40
5.9972220421
  1
20
100
AcDbText
  0
SOLID
  5
92C
330
A
100
AcDbEntity
  8
寸法線
100
AcDbTrace
 10
956.1947914641459
 20
297.1289762163809
 30
0.0
 11
950.194791464146
 21
295.6289762163809
 31
0.0
 12
950.194791464146
 22
298.6289762163809
 32
0.0
 13
951.6947914641459
 23
297.1289762163809
 33
0.0
  0
LINE
  5
92D
330
A
100
AcDbEntity
  8
寸法線
100
AcDbLine
 10
956.1947914641459
 20
297.1289762163809
 30
0.0
 11
953.194791464146
 21
297.1289762163809
 31
0.0
  0
SOLID
  5
92E
330
A
100
AcDbEntity
  8
寸法線
100
AcDbTrace
 10
816.1947914641459
 20
297.1289762163809
 30
0.0
 11
822.1947914641457
 21
298.6289762163809
 31
0.0
 12
822.1947914641457
 22
295.6289762163809
 32
0.0
 13
820.6947914641459
 23
297.1289762163809
 33
0.0
  0
LINE
  5
92F
330
A
100
AcDbEntity
  8
寸法線
100
AcDbLine
 10
816.1947914641459
 20
297.1289762163809
 30
0.0
 11
819.194791464146
 21
297.1289762163809
 31
0.0
  0
LINE
  5
930
330
A
100
AcDbEntity
  8
寸法線
100
AcDbLine
 10
816.1947914641459
 20
297.1289762163809
 30
0.0
 11
877.3753472846458
 21
297.1289762163809
 31
0.0
  0
LINE
  5
931
330
A
100
AcDbEntity
  8
寸法線
100
AcDbLine
 10
816.1947914641459
 20
297.1289762163809
 30
0.0
 11
895.0142356436456
 21
297.1289762163809
 31
0.0
  0
LINE
  5
932
330
A
100
AcDbEntity
  8
寸法線
100
AcDbLine
 10
956.1947914641459
 20
297.1289762163809
 30
0.0
 11
877.3753472846458
 21
297.1289762163809
 31
0.0
  0
LINE
  5
933
330
A
100
AcDbEntity
  8
寸法線
100
AcDbLine
 10
956.1947914641459
 20
297.1289762163809
 30
0.0
 11
895.0142356436456
 21
297.1289762163809
 31
0.0
  0
LINE
  5
934
330
A
100
AcDbEntity
  8
寸法線
100
AcDbLine
 10
816.1947914641459
 20
353.3078363340808
 30
0.0
 11
816.1947914641459
 21
296.6289762163809
 31
0.0
  0
LINE
  5
935
330
A
100
AcDbEntity
  8
寸法線
100
AcDbLine
 10
956.1947914641459
 20
323.3078363340808
 30
0.0
 11
956.1947914641459
 21
296.6289762163809
 31
0.0
  0
TEXT
  5
936
330
A
100
AcDbEntity
  8
寸法線
100
AcDbText
 10
880.9031249564458
 20
299.1873095178807
 30
0.0
 40
5.9972220421
  1
140
100
AcDbText
  0
SOLID
  5
937
330
A
100
AcDbEntity
  8
寸法線
100
AcDbTrace
 10
1161.194791464146
 20
297.1289762163809
 30
0.0
 11
1155.194791464146
 21
295.6289762163809
 31
0.0
 12
1155.194791464146
 22
298.6289762163809
 32
0.0
 13
1156.694791464146
 23
297.1289762163809
 33
0.0
  0
LINE
  5
938
330
A
100
AcDbEntity
  8
寸法線
100
AcDbLine
 10
1161.194791464146
 20
297.1289762163809
 30
0.0
 11
1158.194791464145
 21
297.1289762163809
 31
0.0
  0
SOLID
  5
939
330
A
100
AcDbEntity
  8
寸法線
100
AcDbTrace
 10
1091.194791464145
 20
297.1289762163809
 30
0.0
 11
1097.194791464145
 21
298.6289762163809
 31
0.0
 12
1097.194791464145
 22
295.6289762163809
 32
0.0
 13
1095.694791464145
 23
297.1289762163809
 33
0.0
  0
LINE
  5
93A
330
A
100
AcDbEntity
  8
寸法線
100
AcDbLine
 10
1091.194791464145
 20
297.1289762163809
 30
0.0
 11
1094.194791464146
 21
297.1289762163809
 31
0.0
  0
LINE
  5
93B
330
A
100
AcDbEntity
  8
寸法線
100
AcDbLine
 10
1091.194791464145
 20
297.1289762163809
 30
0.0
 11
1119.139236120545
 21
297.1289762163809
 31
0.0
  0
LINE
  5
93C
330
A
100
AcDbEntity
  8
寸法線
100
AcDbLine
 10
1091.194791464145
 20
297.1289762163809
 30
0.0
 11
1133.250346807746
 21
297.1289762163809
 31
0.0
  0
LINE
  5
93D
330
A
100
AcDbEntity
  8
寸法線
100
AcDbLine
 10
1161.194791464146
 20
297.1289762163809
 30
0.0
 11
1119.139236120545
 21
297.1289762163809
 31
0.0
  0
LINE
  5
93E
330
A
100
AcDbEntity
  8
寸法線
100
AcDbLine
 10
1161.194791464146
 20
297.1289762163809
 30
0.0
 11
1133.250346807746
 21
297.1289762163809
 31
0.0
  0
LINE
  5
93F
330
A
100
AcDbEntity
  8
寸法線
100
AcDbLine
 10
1091.194791464145
 20
353.3078363340808
 30
0.0
 11
1091.194791464145
 21
296.6289762163809
 31
0.0
  0
LINE
  5
940
330
A
100
AcDbEntity
  8
寸法線
100
AcDbLine
 10
1161.194791464146
 20
320.8078363340808
 30
0.0
 11
1161.194791464146
 21
296.6289762163809
 31
0.0
  0
TEXT
  5
941
330
A
100
AcDbEntity
  8
寸法線
100
AcDbText
 10
1122.667013792345
 20
299.1873095178807
 30
0.0
 40
5.9972220421
  1
70
100
AcDbText
  0
SOLID
  5
942
330
A
100
AcDbEntity
  8
寸法線
100
AcDbTrace
 10
1013.699494970346
 20
611.0248709937386
 30
0.0
 11
1012.138180531046
 21
605.0405333343388
 31
0.0
 12
1009.505705684246
 22
606.4793092657387
 32
0.0
 13
1011.541331073346
 23
607.0761587234387
 33
0.0
  0
LINE
  5
943
330
A
100
AcDbEntity
  8
寸法線
100
AcDbLine
 10
1013.699494970346
 20
611.0248709937386
 30
0.0
 11
1012.260719039046
 21
608.3923961469388
 31
0.0
  0
SOLID
  5
944
330
A
100
AcDbEntity
  8
寸法線
100
AcDbTrace
 10
998.3525517025459
 20
582.9451392939387
 30
0.0
 11
999.9138661418459
 21
588.9294769533387
 31
0.0
 12
1002.546340988646
 22
587.4907010220387
 32
0.0
 13
1000.510715599546
 23
586.8938515642387
 33
0.0
  0
LINE
  5
945
330
A
100
AcDbEntity
  8
寸法線
100
AcDbLine
 10
998.3525517025459
 20
582.9451392939387
 30
0.0
 11
999.7913276338458
 21
585.5776141408385
 31
0.0
  0
LINE
  5
946
330
A
100
AcDbEntity
  8
寸法線
100
AcDbLine
 10
998.3525517025459
 20
582.9451392939387
 30
0.0
 11
1002.841815294446
 21
591.1589780362387
 31
0.0
  0
LINE
  5
947
330
A
100
AcDbEntity
  8
寸法線
100
AcDbLine
 10
998.3525517025459
 20
582.9451392939387
 30
0.0
 11
1009.609390768246
 21
603.5413593514387
 31
0.0
  0
LINE
  5
948
330
A
100
AcDbEntity
  8
寸法線
100
AcDbLine
 10
1013.699494970346
 20
611.0248709937386
 30
0.0
 11
1002.841815294446
 21
591.1589780362387
 31
0.0
  0
LINE
  5
949
330
A
100
AcDbEntity
  8
寸法線
100
AcDbLine
 10
1013.699494970346
 20
611.0248709937386
 30
0.0
 11
1009.609390768246
 21
603.5413593514387
 31
0.0
  0
LINE
  5
94A
330
A
100
AcDbEntity
  8
寸法線
100
AcDbLine
 10
1005.612564542046
 20
578.9771880911387
 30
0.0
 11
997.9138058947457
 21
583.1849352825387
 31
0.0
  0
LINE
  5
94B
330
A
100
AcDbEntity
  8
寸法線
100
AcDbLine
 10
1020.959507809946
 20
607.0569197909387
 30
0.0
 11
1013.260749162546
 21
611.2646669823386
 31
0.0
  0
TEXT
  5
94C
330
A
100
AcDbEntity
  8
寸法線
100
AcDbText
 10
1002.727538948646
 20
595.2417335027387
 30
0.0
 40
5.9972220421
  1
32
 50
61.34124321040001
100
AcDbText
  0
SOLID
  5
94D
330
A
100
AcDbEntity
  8
寸法線
100
AcDbTrace
 10
554.4963854707457
 20
429.5300406093387
 30
0.0
 11
552.2836549190458
 21
423.7547636890385
 31
0.0
 12
549.8261987862456
 22
425.4754929980387
 32
0.0
 13
551.9152915071458
 23
425.8438564100385
 33
0.0
  0
LINE
  5
94E
330
A
100
AcDbEntity
  8
寸法線
100
AcDbLine
 10
554.4963854707457
 20
429.5300406093387
 30
0.0
 11
535.6247935820459
 21
402.5786142693386
 31
0.0
  0
TEXT
  5
94F
330
A
100
AcDbEntity
  8
寸法線
100
AcDbText
 10
533.6019431778459
 20
403.9950293710385
 30
0.0
 40
5.9972220421
  1
R50
 50
55.0
100
AcDbText
  0
SOLID
  5
950
330
A
100
AcDbEntity
  8
寸法線
100
AcDbTrace
 10
1205.775433825246
 20
361.8078363340808
 30
0.0
 11
1207.275433825246
 21
355.8078363340808
 31
0.0
 12
1204.275433825246
 22
355.8078363340808
 32
0.0
 13
1205.775433825246
 23
357.3078363340808
 33
0.0
  0
LINE
  5
951
330
A
100
AcDbEntity
  8
寸法線
100
AcDbLine
 10
1205.775433825246
 20
361.8078363340808
 30
0.0
 11
1205.775433825246
 21
358.8078363340808
 31
0.0
  0
SOLID
  5
952
330
A
100
AcDbEntity
  8
寸法線
100
AcDbTrace
 10
1205.775433825246
 20
371.8078363340808
 30
0.0
 11
1204.275433825246
 21
377.8078363340808
 31
0.0
 12
1207.275433825246
 22
377.8078363340808
 32
0.0
 13
1205.775433825246
 23
376.3078363340808
 33
0.0
  0
LINE
  5
953
330
A
100
AcDbEntity
  8
寸法線
100
AcDbLine
 10
1205.775433825246
 20
371.8078363340808
 30
0.0
 11
1205.775433825246
 21
374.8078363340809
 31
0.0
  0
LINE
  5
954
330
A
100
AcDbEntity
  8
寸法線
100
AcDbLine
 10
1205.775433825246
 20
371.8078363340808
 30
0.0
 11
1205.775433825246
 21
371.8078363340808
 31
0.0
  0
LINE
  5
955
330
A
100
AcDbEntity
  8
寸法線
100
AcDbLine
 10
1205.775433825246
 20
371.8078363340808
 30
0.0
 11
1205.775433825246
 21
361.8078363340808
 31
0.0
  0
LINE
  5
956
330
A
100
AcDbEntity
  8
寸法線
100
AcDbLine
 10
1205.775433825246
 20
361.8078363340808
 30
0.0
 11
1205.775433825246
 21
371.8078363340808
 31
0.0
  0
LINE
  5
957
330
A
100
AcDbEntity
  8
寸法線
100
AcDbLine
 10
1205.775433825246
 20
361.8078363340808
 30
0.0
 11
1205.775433825246
 21
361.8078363340808
 31
0.0
  0
LINE
  5
958
330
A
100
AcDbEntity
  8
寸法線
100
AcDbLine
 10
1162.194791464146
 20
371.8078363340808
 30
0.0
 11
1206.275433825245
 21
371.8078363340808
 31
0.0
  0
LINE
  5
959
330
A
100
AcDbEntity
  8
寸法線
100
AcDbLine
 10
1099.694791464146
 20
361.8078363340808
 30
0.0
 11
1206.275433825245
 21
361.8078363340808
 31
0.0
  0
TEXT
  5
95A
330
A
100
AcDbEntity
  8
寸法線
100
AcDbText
 10
1203.717100523746
 20
362.2271940788809
 30
0.0
 40
5.9972220421
  1
10
 50
90.0
100
AcDbText
  0
SOLID
  5
95B
330
A
100
AcDbEntity
  8
寸法線
100
AcDbTrace
 10
1161.194791464146
 20
713.6068748336388
 30
0.0
 11
1155.194791464146
 21
712.1068748336385
 31
0.0
 12
1155.194791464146
 22
715.1068748336387
 32
0.0
 13
1156.694791464146
 23
713.6068748336388
 33
0.0
  0
LINE
  5
95C
330
A
100
AcDbEntity
  8
寸法線
100
AcDbLine
 10
1161.194791464146
 20
713.6068748336388
 30
0.0
 11
1158.194791464145
 21
713.6068748336388
 31
0.0
  0
SOLID
  5
95D
330
A
100
AcDbEntity
  8
寸法線
100
AcDbTrace
 10
661.194791464146
 20
713.6068748336388
 30
0.0
 11
667.1947914641457
 21
715.1068748336387
 31
0.0
 12
667.1947914641457
 22
712.1068748336385
 32
0.0
 13
665.694791464146
 23
713.6068748336388
 33
0.0
  0
LINE
  5
95E
330
A
100
AcDbEntity
  8
寸法線
100
AcDbLine
 10
661.194791464146
 20
713.6068748336388
 30
0.0
 11
664.1947914641457
 21
713.6068748336388
 31
0.0
  0
LINE
  5
95F
330
A
100
AcDbEntity
  8
寸法線
100
AcDbLine
 10
661.194791464146
 20
713.6068748336388
 30
0.0
 11
884.7364589255457
 21
713.6068748336388
 31
0.0
  0
LINE
  5
960
330
A
100
AcDbEntity
  8
寸法線
100
AcDbLine
 10
661.194791464146
 20
713.6068748336388
 30
0.0
 11
937.6531240027459
 21
713.6068748336388
 31
0.0
  0
LINE
  5
961
330
A
100
AcDbEntity
  8
寸法線
100
AcDbLine
 10
1161.194791464146
 20
713.6068748336388
 30
0.0
 11
884.7364589255457
 21
713.6068748336388
 31
0.0
  0
LINE
  5
962
330
A
100
AcDbEntity
  8
寸法線
100
AcDbLine
 10
1161.194791464146
 20
713.6068748336388
 30
0.0
 11
937.6531240027459
 21
713.6068748336388
 31
0.0
  0
LINE
  5
963
330
A
100
AcDbEntity
  8
寸法線
100
AcDbLine
 10
661.194791464146
 20
679.1711159253385
 30
0.0
 11
661.194791464146
 21
714.1068748336388
 31
0.0
  0
LINE
  5
964
330
A
100
AcDbEntity
  8
寸法線
100
AcDbLine
 10
1161.194791464146
 20
674.6711159253385
 30
0.0
 11
1161.194791464146
 21
714.1068748336388
 31
0.0
  0
TEXT
  5
965
330
A
100
AcDbEntity
  8
寸法線
100
AcDbText
 10
888.2642365973458
 20
715.6652081352388
 30
0.0
 40
5.9972220421
  1
500（天板側）
100
AcDbText
  0
SOLID
  5
966
330
A
100
AcDbEntity
  8
寸法線
100
AcDbTrace
 10
1205.775434441746
 20
321.8078363340808
 30
0.0
 11
1207.275434441746
 21
315.8078363340808
 31
0.0
 12
1204.275434441746
 22
315.8078363340808
 32
0.0
 13
1205.775434441746
 23
317.3078363340808
 33
0.0
  0
LINE
  5
967
330
A
100
AcDbEntity
  8
寸法線
100
AcDbLine
 10
1205.775434441746
 20
321.8078363340808
 30
0.0
 11
1205.775434441746
 21
318.8078363340808
 31
0.0
  0
SOLID
  5
968
330
A
100
AcDbEntity
  8
寸法線
100
AcDbTrace
 10
1205.775434441746
 20
331.8078363340808
 30
0.0
 11
1204.275434441746
 21
337.8078363340808
 31
0.0
 12
1207.275434441746
 22
337.8078363340808
 32
0.0
 13
1205.775434441746
 23
336.3078363340808
 33
0.0
  0
LINE
  5
969
330
A
100
AcDbEntity
  8
寸法線
100
AcDbLine
 10
1205.775434441746
 20
331.8078363340808
 30
0.0
 11
1205.775434441746
 21
334.8078363340808
 31
0.0
  0
LINE
  5
96A
330
A
100
AcDbEntity
  8
寸法線
100
AcDbLine
 10
1205.775434441746
 20
331.8078363340808
 30
0.0
 11
1205.775434441746
 21
331.8078363340808
 31
0.0
  0
LINE
  5
96B
330
A
100
AcDbEntity
  8
寸法線
100
AcDbLine
 10
1205.775434441746
 20
331.8078363340808
 30
0.0
 11
1205.775434441746
 21
321.8078363340808
 31
0.0
  0
LINE
  5
96C
330
A
100
AcDbEntity
  8
寸法線
100
AcDbLine
 10
1205.775434441746
 20
321.8078363340808
 30
0.0
 11
1205.775434441746
 21
331.8078363340808
 31
0.0
  0
LINE
  5
96D
330
A
100
AcDbEntity
  8
寸法線
100
AcDbLine
 10
1205.775434441746
 20
321.8078363340808
 30
0.0
 11
1205.775434441746
 21
321.8078363340808
 31
0.0
  0
LINE
  5
96E
330
A
100
AcDbEntity
  8
寸法線
100
AcDbLine
 10
964.694791464146
 20
331.8078363340808
 30
0.0
 11
1206.275434441746
 21
331.8078363340808
 31
0.0
  0
LINE
  5
96F
330
A
100
AcDbEntity
  8
寸法線
100
AcDbLine
 10
1163.503278680045
 20
321.8078363340808
 30
0.0
 11
1206.275434441746
 21
321.8078363340808
 31
0.0
  0
TEXT
  5
970
330
A
100
AcDbEntity
  8
寸法線
100
AcDbText
 10
1203.717101140246
 20
323.2800586622808
 30
0.0
 40
5.9972220421
  1
10
 50
90.0
100
AcDbText
  0
LINE
  5
971
330
A
100
AcDbEntity
  8
Layer1
 62
     5
370
    18
100
AcDbLine
 10
1156.194791464145
 20
518.9360800319386
 30
0.0
 11
1156.194791464145
 21
478.1711159253386
 31
0.0
  0
LINE
  5
972
330
A
100
AcDbEntity
  8
Layer1
 62
     5
370
    18
100
AcDbLine
 10
782.2410051894458
 20
673.1711159253385
 30
0.0
 11
873.1912344041457
 21
673.1711159253385
 31
0.0
  0
LINE
  5
973
330
A
100
AcDbEntity
  8
Layer1
 62
     5
370
    18
100
AcDbLine
 10
782.2410051894458
 20
669.7814988234386
 30
0.0
 11
782.2410051894458
 21
673.1711159253385
 31
0.0
  0
ARC
  5
974
330
A
100
AcDbEntity
  8
Layer1
 62
     5
370
    18
100
AcDbCircle
 10
785.2155973487457
 20
670.1711159253385
 30
0.0
 40
3.0
100
AcDbArc
 50
187.4622169762
 51
255.0755660475999
  0
ARC
  5
975
330
A
100
AcDbEntity
  8
Layer1
 62
     5
370
    18
100
AcDbCircle
 10
526.8980790366458
 20
-298.9940195046613
 30
0.0
 40
1032.0
100
AcDbArc
 50
52.4261399116
 51
70.3936859647
  0
ARC
  5
976
330
A
100
AcDbEntity
  8
Layer1
 62
     5
370
    18
100
AcDbCircle
 10
526.8980790366458
 20
-298.9940195046613
 30
0.0
 40
1000.0
100
AcDbArc
 50
51.001745706
 51
75.07556604760001
  0
LINE
  5
977
330
A
100
AcDbEntity
  8
ﾚｲﾔｰ1
370
     5
100
AcDbLine
 10
691.5413028141458
 20
398.3821201881809
 30
0.0
 11
751.5413028141458
 21
398.3821201881809
 31
0.0
  0
LINE
  5
978
330
A
100
AcDbEntity
  8
ﾚｲﾔｰ1
370
     5
100
AcDbLine
 10
705.5413028141458
 20
384.3821201881809
 30
0.0
 11
765.5413028141459
 21
384.3821201881809
 31
0.0
  0
LINE
  5
979
330
A
100
AcDbEntity
  8
ﾚｲﾔｰ1
370
     5
100
AcDbLine
 10
703.5413028141459
 20
386.3821201881809
 30
0.0
 11
763.5413028141458
 21
386.3821201881809
 31
0.0
  0
LINE
  5
97A
330
A
100
AcDbEntity
  8
ﾚｲﾔｰ1
370
     5
100
AcDbLine
 10
701.5413028141458
 20
388.3821201881809
 30
0.0
 11
761.5413028141459
 21
388.3821201881809
 31
0.0
  0
LINE
  5
97B
330
A
100
AcDbEntity
  8
ﾚｲﾔｰ1
370
     5
100
AcDbLine
 10
699.5413028141459
 20
390.3821201881809
 30
0.0
 11
759.5413028141458
 21
390.3821201881809
 31
0.0
  0
LINE
  5
97C
330
A
100
AcDbEntity
  8
ﾚｲﾔｰ1
370
     5
100
AcDbLine
 10
697.5413028141458
 20
392.3821201881809
 30
0.0
 11
757.5413028141459
 21
392.3821201881809
 31
0.0
  0
LINE
  5
97D
330
A
100
AcDbEntity
  8
ﾚｲﾔｰ1
370
     5
100
AcDbLine
 10
695.5413028141459
 20
394.3821201881809
 30
0.0
 11
755.5413028141458
 21
394.3821201881809
 31
0.0
  0
LINE
  5
97E
330
A
100
AcDbEntity
  8
ﾚｲﾔｰ1
370
     5
100
AcDbLine
 10
693.5413028141458
 20
396.3821201881809
 30
0.0
 11
753.5413028141459
 21
396.3821201881809
 31
0.0
  0
MTEXT
  5
97F
330
A
100
AcDbEntity
  8
ﾚｲﾔｰ1
370
     5
100
AcDbMText
 10
715.4642621089457
 20
407.3364072283808
 30
0.0
 40
5.9972220421
 41
18.4230131025
 71
     1
 72
     1
  1
\W0.8;\fＭＳ ゴシック;\W1.0;ＨＬ
 73
     1
 44
1.0
1001
ACAD
1000
MTEXTBEGIN
1070
    73
1070
     1
1070
    44
1040
1.0
1070
    74
1070
     0
1000
MTEXTEND
  0
CIRCLE
  5
980
330
A
100
AcDbEntity
  8
Layer1
 62
     5
370
    18
100
AcDbCircle
 10
956.1947914641459
 20
331.8078363340808
 30
0.0
 40
3.0
  0
CIRCLE
  5
981
330
A
100
AcDbEntity
  8
Layer1
 62
     5
370
    18
100
AcDbCircle
 10
956.1947914641459
 20
331.8078363340808
 30
0.0
 40
5.5
  0
CIRCLE
  5
982
330
A
100
AcDbEntity
  8
Layer1
 62
     5
370
    18
100
AcDbCircle
 10
681.1947914641457
 20
346.8078363340808
 30
0.0
 40
5.5
  0
CIRCLE
  5
983
330
A
100
AcDbEntity
  8
Layer1
 62
     5
370
    18
100
AcDbCircle
 10
681.1947914641457
 20
346.8078363340808
 30
0.0
 40
3.0
  0
LINE
  5
984
330
A
100
AcDbEntity
  8
Layer1
  6
DASHDOT
 62
     3
370
    18
100
AcDbLine
 10
673.694791464146
 20
346.8078363340808
 30
0.0
 11
688.6947914641458
 21
346.8078363340808
 31
0.0
  0
LINE
  5
985
330
A
100
AcDbEntity
  8
Layer1
  6
DASHDOT
 62
     3
370
    18
100
AcDbLine
 10
681.1947914641457
 20
354.3078363340808
 30
0.0
 11
681.1947914641457
 21
339.3078363340809
 31
0.0
  0
LINE
  5
986
330
A
100
AcDbEntity
  8
Layer1
  6
DASHDOT
 62
     3
370
    18
100
AcDbLine
 10
948.694791464146
 20
331.8078363340808
 30
0.0
 11
963.694791464146
 21
331.8078363340808
 31
0.0
  0
LINE
  5
987
330
A
100
AcDbEntity
  8
Layer1
  6
DASHDOT
 62
     3
370
    18
100
AcDbLine
 10
956.1947914641459
 20
339.3078363340809
 30
0.0
 11
956.1947914641459
 21
324.3078363340808
 31
0.0
  0
LINE
  5
988
330
A
100
AcDbEntity
  8
Layer1
  6
DASHDOT
 62
     3
370
    18
100
AcDbLine
 10
808.6947914641458
 20
361.8078363340808
 30
0.0
 11
823.694791464146
 21
361.8078363340808
 31
0.0
  0
LINE
  5
989
330
A
100
AcDbEntity
  8
Layer1
  6
DASHDOT
 62
     3
370
    18
100
AcDbLine
 10
816.1947914641459
 20
369.3078363340808
 30
0.0
 11
816.1947914641459
 21
354.3078363340808
 31
0.0
  0
LINE
  5
98A
330
A
100
AcDbEntity
  8
Layer1
  6
DASHDOT
 62
     3
370
    18
100
AcDbLine
 10
1083.694791464146
 20
361.8078363340808
 30
0.0
 11
1098.694791464146
 21
361.8078363340808
 31
0.0
  0
LINE
  5
98B
330
A
100
AcDbEntity
  8
Layer1
  6
DASHDOT
 62
     3
370
    18
100
AcDbLine
 10
1091.194791464145
 20
369.3078363340808
 30
0.0
 11
1091.194791464145
 21
354.3078363340808
 31
0.0
  0
LINE
  5
98C
330
A
100
AcDbEntity
  8
Layer1
  6
DASHDOT
 62
     3
370
    18
100
AcDbLine
 10
1166.194791464145
 20
346.8078363340808
 30
0.0
 11
651.1947914641457
 21
346.8078363340808
 31
0.0
  0
LINE
  5
98D
330
A
100
AcDbEntity
  8
Layer1
  6
DASHDOT
 62
     3
370
    18
100
AcDbLine
 10
573.5742001220457
 20
628.1711159253385
 30
0.0
 11
588.5742001220457
 21
628.1711159253385
 31
0.0
  0
LINE
  5
98E
330
A
100
AcDbEntity
  8
Layer1
  6
DASHDOT
 62
     3
370
    18
100
AcDbLine
 10
581.0742001220457
 20
635.6711159253385
 30
0.0
 11
581.0742001220457
 21
620.6711159253385
 31
0.0
  0
LINE
  5
98F
330
A
100
AcDbEntity
  8
Layer1
  6
DASHDOT
 62
     3
370
    18
100
AcDbLine
 10
566.0742001220458
 20
455.6711159253388
 30
0.0
 11
566.0742001220458
 21
440.6711159253386
 31
0.0
  0
LINE
  5
990
330
A
100
AcDbEntity
  8
Layer1
  6
DASHDOT
 62
     3
370
    18
100
AcDbLine
 10
558.5742001220458
 20
448.1711159253388
 30
0.0
 11
573.5742001220457
 21
448.1711159253388
 31
0.0
  0
LINE
  5
991
330
A
100
AcDbEntity
  8
Layer1
 62
     5
370
    18
100
AcDbLine
 10
1156.194791464145
 20
344.3078363340808
 30
0.0
 11
782.2410051894458
 21
344.3078363340808
 31
0.0
  0
LINE
  5
992
330
A
100
AcDbEntity
  8
Layer1
 62
     5
370
    18
100
AcDbLine
 10
1156.194791464145
 20
349.3078363340808
 30
0.0
 11
782.2410051894458
 21
349.3078363340808
 31
0.0
  0
LINE
  5
993
330
A
100
AcDbEntity
  8
Layer1
  6
DASHDOT
 62
     3
370
    18
100
AcDbLine
 10
566.0742001220458
 20
683.1711159253385
 30
0.0
 11
566.0742001220458
 21
423.1711159253386
 31
0.0
  0
LINE
  5
994
330
A
100
AcDbEntity
  8
Layer1
 62
     5
370
    18
100
AcDbLine
 10
1161.194791464146
 20
371.8078363340808
 30
0.0
 11
667.8935212749459
 21
371.8078363340808
 31
0.0
  0
LINE
  5
995
330
A
100
AcDbEntity
  8
Layer1
 62
     5
370
    18
100
AcDbLine
 10
1161.194791464146
 20
321.8078363340808
 30
0.0
 11
667.8935212749459
 21
321.8078363340808
 31
0.0
  0
LINE
  5
996
330
A
100
AcDbEntity
  8
Layer1
 62
     5
370
    18
100
AcDbLine
 10
661.194791464146
 20
673.1711159253385
 30
0.0
 11
1151.194791464146
 21
673.1711159253385
 31
0.0
  0
LINE
  5
997
330
A
100
AcDbEntity
  8
Layer1
 62
     5
370
    18
100
AcDbLine
 10
661.194791464146
 20
678.1711159253385
 30
0.0
 11
1151.194791464146
 21
678.1711159253385
 31
0.0
  0
LINE
  5
998
330
A
100
AcDbEntity
  8
Layer1
 62
     5
370
    18
100
AcDbLine
 10
782.2410051894458
 20
349.3078363340808
 30
0.0
 11
782.2410051894458
 21
344.3078363340808
 31
0.0
  0
ARC
  5
999
330
A
100
AcDbEntity
  8
Layer1
 62
     5
370
    18
100
AcDbCircle
 10
711.194791464146
 20
346.8078363340808
 30
0.0
 40
50.0
100
AcDbArc
 50
150.0
 51
210.0
  0
LINE
  5
99A
330
A
100
AcDbEntity
  8
Layer1
 62
     5
370
    18
100
AcDbLine
 10
1156.194791464145
 20
371.8078363340808
 30
0.0
 11
1156.194791464145
 21
321.8078363340808
 31
0.0
  0
LINE
  5
99B
330
A
100
AcDbEntity
  8
Layer1
 62
     5
370
    18
100
AcDbLine
 10
1161.194791464146
 20
371.8078363340808
 30
0.0
 11
1161.194791464146
 21
321.8078363340808
 31
0.0
  0
LINE
  5
99C
330
A
100
AcDbEntity
  8
Layer1
 62
     5
370
    18
100
AcDbLine
 10
1156.194791464145
 20
428.1711159253386
 30
0.0
 11
1161.194791464146
 21
428.1711159253386
 31
0.0
  0
ARC
  5
99D
330
A
100
AcDbEntity
  8
Layer1
 62
     5
370
    18
100
AcDbCircle
 10
1151.194791464146
 20
668.1711159253385
 30
0.0
 40
10.0
100
AcDbArc
 50
0.0
 51
90.0
  0
LINE
  5
99E
330
A
100
AcDbEntity
  8
Layer1
 62
     5
370
    18
100
AcDbLine
 10
1156.194791464145
 20
668.1711159253385
 30
0.0
 11
1156.194791464145
 21
428.1711159253386
 31
0.0
  0
ARC
  5
99F
330
A
100
AcDbEntity
  8
Layer1
 62
     5
370
    18
100
AcDbCircle
 10
1151.194791464146
 20
668.1711159253385
 30
0.0
 40
5.0
100
AcDbArc
 50
0.0
 51
90.0
  0
LINE
  5
9A0
330
A
100
AcDbEntity
  8
Layer1
 62
     5
370
    18
100
AcDbLine
 10
1161.194791464146
 20
668.1711159253385
 30
0.0
 11
1161.194791464146
 21
428.1711159253386
 31
0.0
  0
CIRCLE
  5
9A1
330
A
100
AcDbEntity
  8
Layer1
 62
     5
370
    18
100
AcDbCircle
 10
1091.194791464145
 20
361.8078363340808
 30
0.0
 40
3.0
  0
CIRCLE
  5
9A2
330
A
100
AcDbEntity
  8
Layer1
 62
     5
370
    18
100
AcDbCircle
 10
1091.194791464145
 20
361.8078363340808
 30
0.0
 40
5.5
  0
CIRCLE
  5
9A3
330
A
100
AcDbEntity
  8
Layer1
 62
     5
370
    18
100
AcDbCircle
 10
816.1947914641459
 20
361.8078363340808
 30
0.0
 40
5.5
  0
CIRCLE
  5
9A4
330
A
100
AcDbEntity
  8
Layer1
 62
     5
370
    18
100
AcDbCircle
 10
816.1947914641459
 20
361.8078363340808
 30
0.0
 40
3.0
  0
ARC
  5
9A5
330
A
100
AcDbEntity
  8
Layer1
 62
     5
370
    18
100
AcDbCircle
 10
566.0742001220458
 20
478.1711159253386
 30
0.0
 40
50.0
100
AcDbArc
 50
240.0
 51
300.0
  0
LINE
  5
9A6
330
A
100
AcDbEntity
  8
Layer1
 62
     5
370
    18
100
AcDbLine
 10
591.0742001220458
 20
678.1711159253385
 30
0.0
 11
541.0742001220458
 21
678.1711159253385
 31
0.0
  0
LINE
  5
9A7
330
A
100
AcDbEntity
  8
Layer1
 62
     5
370
    18
100
AcDbLine
 10
591.0742001220458
 20
673.1711159253385
 30
0.0
 11
541.0742001220458
 21
673.1711159253385
 31
0.0
  0
LINE
  5
9A8
330
A
100
AcDbEntity
  8
Layer1
 62
     5
370
    18
100
AcDbLine
 10
563.5742001220457
 20
673.1711159253385
 30
0.0
 11
563.5742001220457
 21
478.1711159253386
 31
0.0
  0
LINE
  5
9A9
330
A
100
AcDbEntity
  8
Layer1
 62
     5
370
    18
100
AcDbLine
 10
568.5742001220457
 20
673.1711159253385
 30
0.0
 11
568.5742001220457
 21
478.1711159253386
 31
0.0
  0
LINE
  5
9AA
330
A
100
AcDbEntity
  8
Layer1
 62
     5
370
    18
100
AcDbLine
 10
661.194791464146
 20
678.1711159253385
 30
0.0
 11
661.194791464146
 21
673.1711159253385
 31
0.0
  0
LINE
  5
9AB
330
A
100
AcDbEntity
  8
Layer1
 62
     5
370
    18
100
AcDbLine
 10
568.5742001220457
 20
478.1711159253386
 30
0.0
 11
563.5742001220457
 21
478.1711159253386
 31
0.0
  0
LINE
  5
9AC
330
A
100
AcDbEntity
  8
Layer1
 62
     5
370
    18
100
AcDbLine
 10
591.0742001220458
 20
678.1711159253385
 30
0.0
 11
591.0742001220458
 21
434.8698457361385
 31
0.0
  0
LINE
  5
9AD
330
A
100
AcDbEntity
  8
Layer1
 62
     5
370
    18
100
AcDbLine
 10
541.0742001220458
 20
678.1711159253385
 30
0.0
 11
541.0742001220458
 21
434.8698457361385
 31
0.0
  0
CIRCLE
  5
9AE
330
A
100
AcDbEntity
  8
Layer1
 62
     5
370
    18
100
AcDbCircle
 10
566.0742001220458
 20
448.1711159253388
 30
0.0
 40
5.5
  0
CIRCLE
  5
9AF
330
A
100
AcDbEntity
  8
Layer1
 62
     5
370
    18
100
AcDbCircle
 10
566.0742001220458
 20
448.1711159253388
 30
0.0
 40
3.0
  0
CIRCLE
  5
9B0
330
A
100
AcDbEntity
  8
Layer1
 62
     5
370
    18
100
AcDbCircle
 10
581.0742001220457
 20
628.1711159253385
 30
0.0
 40
5.5
  0
CIRCLE
  5
9B1
330
A
100
AcDbEntity
  8
Layer1
 62
     5
370
    18
100
AcDbCircle
 10
581.0742001220457
 20
628.1711159253385
 30
0.0
 40
3.0
  0
CIRCLE
  5
9B2
330
A
100
AcDbEntity
  8
Layer1
 62
     5
370
    18
100
AcDbCircle
 10
581.0742001220457
 20
588.1711159253385
 30
0.0
 40
5.5
  0
CIRCLE
  5
9B3
330
A
100
AcDbEntity
  8
Layer1
 62
     5
370
    18
100
AcDbCircle
 10
581.0742001220457
 20
588.1711159253385
 30
0.0
 40
3.0
  0
CIRCLE
  5
9B4
330
A
100
AcDbEntity
  8
Layer1
 62
     5
370
    18
100
AcDbCircle
 10
551.0742001220457
 20
608.1711159253385
 30
0.0
 40
5.5
  0
CIRCLE
  5
9B5
330
A
100
AcDbEntity
  8
Layer1
 62
     5
370
    18
100
AcDbCircle
 10
551.0742001220457
 20
608.1711159253385
 30
0.0
 40
3.0
  0
CIRCLE
  5
9B6
330
A
100
AcDbEntity
  8
Layer1
 62
     5
370
    18
100
AcDbCircle
 10
551.0742001220457
 20
648.1711159253385
 30
0.0
 40
5.5
  0
CIRCLE
  5
9B7
330
A
100
AcDbEntity
  8
Layer1
 62
     5
370
    18
100
AcDbCircle
 10
551.0742001220457
 20
648.1711159253385
 30
0.0
 40
3.0
  0
LINE
  5
9B8
330
A
100
AcDbEntity
  8
Layer1
  6
DASHDOT
 62
     3
370
    18
100
AcDbLine
 10
543.5742001220456
 20
648.1711159253385
 30
0.0
 11
558.5742001220458
 21
648.1711159253385
 31
0.0
  0
LINE
  5
9B9
330
A
100
AcDbEntity
  8
Layer1
  6
DASHDOT
 62
     3
370
    18
100
AcDbLine
 10
551.0742001220457
 20
655.6711159253385
 30
0.0
 11
551.0742001220457
 21
640.6711159253385
 31
0.0
  0
LINE
  5
9BA
330
A
100
AcDbEntity
  8
Layer1
  6
DASHDOT
 62
     3
370
    18
100
AcDbLine
 10
543.5742001220456
 20
608.1711159253385
 30
0.0
 11
558.5742001220458
 21
608.1711159253385
 31
0.0
  0
LINE
  5
9BB
330
A
100
AcDbEntity
  8
Layer1
  6
DASHDOT
 62
     3
370
    18
100
AcDbLine
 10
551.0742001220457
 20
600.6711159253385
 30
0.0
 11
551.0742001220457
 21
615.6711159253385
 31
0.0
  0
LINE
  5
9BC
330
A
100
AcDbEntity
  8
Layer1
  6
DASHDOT
 62
     3
370
    18
100
AcDbLine
 10
573.5742001220457
 20
588.1711159253385
 30
0.0
 11
588.5742001220457
 21
588.1711159253385
 31
0.0
  0
LINE
  5
9BD
330
A
100
AcDbEntity
  8
Layer1
  6
DASHDOT
 62
     3
370
    18
100
AcDbLine
 10
581.0742001220457
 20
595.6711159253385
 30
0.0
 11
581.0742001220457
 21
580.6711159253385
 31
0.0
  0
ENDSEC
  0
SECTION
  2
OBJECTS
  0
DICTIONARY
  5
19
330
0
100
AcDbDictionary
281
     1
  3
ACAD_COLOR
350
2B4
  3
ACAD_GROUP
350
1A
  3
ACAD_LAYOUT
350
1E
  3
ACAD_MATERIAL
350
2B3
  3
ACAD_MLINESTYLE
350
1B
  3
ACAD_PLOTSETTINGS
350
22
  3
ACAD_PLOTSTYLENAME
350
1F
  3
ACAD_WIPEOUT_VARS
350
23
  3
ACDBHEADERROUNDTRIPXREC
350
9EE
  3
AcDbVariableDictionary
350
9CC
  3
ASE_INDEX_DICTIONARY
350
9CA
  0
DICTIONARY
  5
2C6
330
2
100
AcDbDictionary
280
     1
281
     1
  3
ACAD_LAYERSTATES
360
2C7
  0
DICTIONARY
  5
2B4
102
{ACAD_REACTORS
330
19
102
}
330
19
100
AcDbDictionary
281
     1
  0
DICTIONARY
  5
1A
102
{ACAD_REACTORS
330
19
102
}
330
19
100
AcDbDictionary
281
     1
  0
DICTIONARY
  5
1E
102
{ACAD_REACTORS
330
19
102
}
330
19
100
AcDbDictionary
281
     1
  3
Layout1
350
21
  3
Model
350
20
  0
DICTIONARY
  5
2B3
102
{ACAD_REACTORS
330
19
102
}
330
19
100
AcDbDictionary
281
     1
  0
DICTIONARY
  5
1B
102
{ACAD_REACTORS
330
19
102
}
330
19
100
AcDbDictionary
281
     1
  3
Standard
350
1C
  0
DICTIONARY
  5
22
102
{ACAD_REACTORS
330
19
102
}
330
19
100
AcDbDictionary
281
     1
  0
ACDBDICTIONARYWDFLT
  5
1F
102
{ACAD_REACTORS
330
19
102
}
330
19
100
AcDbDictionary
281
     1
  3
Normal
350
1D
100
AcDbDictionaryWithDefault
340
1D
  0
WIPEOUTVARIABLES
  5
23
330
19
100
AcDbWipeoutVariables
 70
     1
  0
DICTIONARY
  5
9EE
102
{ACAD_REACTORS
330
19
102
}
330
19
100
AcDbDictionary
281
     1
  3
COLORDICT
350
9F0
  3
MATERIALDICT
350
9EF
  0
DICTIONARY
  5
9CC
102
{ACAD_REACTORS
330
19
102
}
330
19
100
AcDbDictionary
281
     1
  3
DIMASSOC
350
9CD
  3
PROJECTNAME
350
9CE
  0
DICTIONARY
  5
9CA
102
{ACAD_REACTORS
330
19
102
}
330
19
100
AcDbDictionary
281
     1
  3
ASEBlockHierarchyIndexRecord
350
9CB
1001
DCO15
1040
1776759298.625
  0
DICTIONARY
  5
2C7
102
{ACAD_REACTORS
330
2C6
102
}
330
2C6
100
AcDbDictionary
281
     1
  0
LAYOUT
  5
21
102
{ACAD_XDICTIONARY
360
9F3
102
}
102
{ACAD_REACTORS
330
1E
102
}
330
1E
100
AcDbPlotSettings
  1

  2

  4

  6

 40
0.0
 41
0.0
 42
0.0
 43
0.0
 44
0.0
 45
0.0
 46
0.0
 47
0.0
 48
0.0
 49
0.0
140
0.0
141
0.0
142
1.0
143
1.0
 70
     0
 72
     0
 73
     0
 74
     0
  7

 75
     0
147
1.0
148
0.0
149
0.0
100
AcDbLayout
  1
Layout1
 70
     0
 71
     1
 10
0.0
 20
0.0
 11
12.0
 21
9.0
 12
0.0
 22
0.0
 32
0.0
 14
1.000000000000000E+20
 24
1.000000000000000E+20
 34
1.000000000000000E+20
 15
-1.000000000000000E+20
 25
-1.000000000000000E+20
 35
-1.000000000000000E+20
146
0.0
 13
0.0
 23
0.0
 33
0.0
 16
1.0
 26
0.0
 36
0.0
 17
0.0
 27
1.0
 37
0.0
 76
     0
330
B
  0
LAYOUT
  5
20
102
{ACAD_XDICTIONARY
360
9F1
102
}
102
{ACAD_REACTORS
330
1E
102
}
330
1E
100
AcDbPlotSettings
  1

  2
クセロPDF2.pc3
  4
A3
  6

 40
3.174999952316282
 41
3.174999952316282
 42
3.17498779296875
 43
3.17498779296875
 44
419.9466552734373
 45
296.9259948730469
 46
0.0
 47
0.0
 48
436.9865883391459
 49
172.6121859501913
140
1278.981588339144
141
767.9621859501915
142
1.0
143
2.048861521241269
 70
 14512
 72
     1
 73
     0
 74
     4
  7
monochrome.stb
 75
     0
147
0.4880759336991046
148
-436.9865883391459
149
-172.6121859501913
100
AcDbLayout
  1
Model
 70
     0
 71
     0
 10
0.0
 20
0.0
 11
0.0
 21
0.0
 12
0.0
 22
0.0
 32
0.0
 14
0.0
 24
0.0
 34
0.0
 15
0.0
 25
0.0
 35
0.0
146
0.0
 13
0.0
 23
0.0
 33
0.0
 16
0.0
 26
0.0
 36
0.0
 17
0.0
 27
0.0
 37
0.0
 76
     0
330
A
  0
MLINESTYLE
  5
1C
102
{ACAD_REACTORS
330
1B
102
}
330
1B
100
AcDbMlineStyle
  2
STANDARD
 70
     0
  3

 62
     0
 51
90.0
 52
90.0
 71
     2
 49
0.5
 62
   256
  6
BYLAYER
 49
-0.5
 62
   256
  6
BYLAYER
  0
ACDBPLACEHOLDER
  5
1D
102
{ACAD_REACTORS
330
1F
102
}
330
1F
  0
XRECORD
  5
9F0
102
{ACAD_REACTORS
330
9EE
102
}
330
9EE
100
AcDbXrecord
280
     1
340
2B4
  0
XRECORD
  5
9EF
102
{ACAD_REACTORS
330
9EE
102
}
330
9EE
100
AcDbXrecord
280
     1
340
2B3
  0
DICTIONARYVAR
  5
9CD
102
{ACAD_REACTORS
330
9CC
102
}
330
9CC
100
DictionaryVariables
280
     0
  1
1
  0
DICTIONARYVAR
  5
9CE
102
{ACAD_REACTORS
330
9CC
102
}
330
9CC
100
DictionaryVariables
280
     0
  1

  0
XRECORD
  5
9CB
102
{ACAD_REACTORS
330
9CA
102
}
330
9CA
100
AcDbXrecord
280
     1
  0
DICTIONARY
  5
9F3
330
21
100
AcDbDictionary
280
     1
281
     1
  3
ACAD_XREC_ROUNDTRIP
360
9F4
  0
DICTIONARY
  5
9F1
330
20
100
AcDbDictionary
280
     1
281
     1
  3
ACAD_XREC_ROUNDTRIP
360
9F2
  0
XRECORD
  5
9F4
102
{ACAD_REACTORS
330
9F3
102
}
330
9F3
100
AcDbXrecord
280
     1
102
SHADEPLOT
 70
     0
102
SHADEPLOTRESLEVEL
 70
     2
102
SHADEPLOTCUSTOMDPI
 70
   300
  0
XRECORD
  5
9F2
102
{ACAD_REACTORS
330
9F1
102
}
330
9F1
100
AcDbXrecord
280
     1
102
SHADEPLOT
 70
     0
102
SHADEPLOTRESLEVEL
 70
     2
102
SHADEPLOTCUSTOMDPI
 70
   150
  0
ENDSEC
  0
EOF
