  0
SECTION
  2
HEADER
  9
$ACADVER
  1
AC1015
  9
$ACADMAINTVER
 70
    20
  9
$DWGCODEPAGE
  3
ANSI_932
  9
$INSBASE
 10
0.0
 20
0.0
 30
0.0
  9
$EXTMIN
 10
446.7599711109728
 20
177.5362600339431
 30
-0.0015258207003583
  9
$EXTMAX
 10
1288.835056963438
 20
772.960294008179
 30
0.0000000349246037
  9
$LIMMIN
 10
0.0
 20
0.0
  9
$LIMMAX
 10
0.0
 20
0.0
  9
$ORTHOMODE
 70
     0
  9
$REGENMODE
 70
     1
  9
$FILLMODE
 70
     1
  9
$QTEXTMODE
 70
     0
  9
$MIRRTEXT
 70
     1
  9
$LTSCALE
 40
1.0
  9
$ATTMODE
 70
     1
  9
$TEXTSIZE
 40
0.0
  9
$TRACEWID
 40
0.05
  9
$TEXTSTYLE
  7
Standard
  9
$CLAYER
  8
0
  9
$CELTYPE
  6
Continuous
  9
$CECOLOR
 62
   256
  9
$CELTSCALE
 40
1.0
  9
$DISPSILH
 70
     0
  9
$DIMSCALE
 40
1.0
  9
$DIMASZ
 40
0.18
  9
$DIMEXO
 40
0.0625
  9
$DIMDLI
 40
0.38
  9
$DIMRND
 40
0.0
  9
$DIMDLE
 40
0.0
  9
$DIMEXE
 40
0.18
  9
$DIMTP
 40
0.0
  9
$DIMTM
 40
0.0
  9
$DIMTXT
 40
0.18
  9
$DIMCEN
 40
0.09
  9
$DIMTSZ
 40
0.0
  9
$DIMTOL
 70
     0
  9
$DIMLIM
 70
     0
  9
$DIMTIH
 70
     1
  9
$DIMTOH
 70
     1
  9
$DIMSE1
 70
     0
  9
$DIMSE2
 70
     0
  9
$DIMTAD
 70
     0
  9
$DIMZIN
 70
     0
  9
$DIMBLK
  1

  9
$DIMASO
 70
     1
  9
$DIMSHO
 70
     1
  9
$DIMPOST
  1

  9
$DIMAPOST
  1

  9
$DIMALT
 70
     0
  9
$DIMALTD
 70
     2
  9
$DIMALTF
 40
25.4
  9
$DIMLFAC
 40
1.0
  9
$DIMTOFL
 70
     0
  9
$DIMTVP
 40
0.0
  9
$DIMTIX
 70
     0
  9
$DIMSOXD
 70
     0
  9
$DIMSAH
 70
     0
  9
$DIMBLK1
  1

  9
$DIMBLK2
  1

  9
$DIMSTYLE
  2
Standard
  9
$DIMCLRD
 70
     0
  9
$DIMCLRE
 70
     0
  9
$DIMCLRT
 70
     0
  9
$DIMTFAC
 40
1.0
  9
$DIMGAP
 40
0.09
  9
$DIMJUST
 70
     0
  9
$DIMSD1
 70
     0
  9
$DIMSD2
 70
     0
  9
$DIMTOLJ
 70
     1
  9
$DIMTZIN
 70
     0
  9
$DIMALTZ
 70
     0
  9
$DIMALTTZ
 70
     0
  9
$DIMUPT
 70
     0
  9
$DIMDEC
 70
     4
  9
$DIMTDEC
 70
     4
  9
$DIMALTU
 70
     2
  9
$DIMALTTD
 70
     2
  9
$DIMTXSTY
  7
Standard
  9
$DIMAUNIT
 70
     0
  9
$DIMADEC
 70
     0
  9
$DIMALTRND
 40
0.0
  9
$DIMAZIN
 70
     0
  9
$DIMDSEP
 70
     0
  9
$DIMATFIT
 70
     3
  9
$DIMFRAC
 70
     0
  9
$DIMLDRBLK
  1

  9
$DIMLUNIT
 70
     2
  9
$DIMLWD
 70
     0
  9
$DIMLWE
 70
     0
  9
$DIMTMOVE
 70
     0
  9
$LUNITS
 70
     2
  9
$LUPREC
 70
     4
  9
$SKETCHINC
 40
0.1
  9
$FILLETRAD
 40
0.0
  9
$AUNITS
 70
     0
  9
$AUPREC
 70
     0
  9
$MENU
  1
acad
  9
$ELEVATION
 40
0.0
  9
$PELEVATION
 40
0.0
  9
$THICKNESS
 40
0.0
  9
$LIMCHECK
 70
     0
  9
$CHAMFERA
 40
0.0
  9
$CHAMFERB
 40
0.0
  9
$CHAMFERC
 40
0.0
  9
$CHAMFERD
 40
0.0
  9
$SKPOLY
 70
     0
  9
$TDCREATE
 40
2456367.447979780
  9
$TDUCREATE
 40
2456367.072979780
  9
$TDUPDATE
 40
2456386.720141956
  9
$TDUUPDATE
 40
2456386.345141956
  9
$TDINDWG
 40
0.0028101505
  9
$TDUSRTIMER
 40
0.0028092593
  9
$USRTIMER
 70
     1
  9
$ANGBASE
 50
0.0
  9
$ANGDIR
 70
     0
  9
$PDMODE
 70
     3
  9
$PDSIZE
 40
-1.0
  9
$PLINEWID
 40
0.0
  9
$SPLFRAME
 70
     0
  9
$SPLINETYPE
 70
     6
  9
$SPLINESEGS
 70
     8
  9
$HANDSEED
  5
9E6
  9
$SURFTAB1
 70
     6
  9
$SURFTAB2
 70
     6
  9
$SURFTYPE
 70
     6
  9
$SURFU
 70
     6
  9
$SURFV
 70
     6
  9
$UCSBASE
  2

  9
$UCSNAME
  2

  9
$UCSORG
 10
0.0
 20
0.0
 30
0.0
  9
$UCSXDIR
 10
1.0
 20
0.0
 30
0.0
  9
$UCSYDIR
 10
0.0
 20
1.0
 30
0.0
  9
$UCSORTHOREF
  2

  9
$UCSORTHOVIEW
 70
     0
  9
$UCSORGTOP
 10
0.0
 20
0.0
 30
0.0
  9
$UCSORGBOTTOM
 10
0.0
 20
0.0
 30
0.0
  9
$UCSORGLEFT
 10
0.0
 20
0.0
 30
0.0
  9
$UCSORGRIGHT
 10
0.0
 20
0.0
 30
0.0
  9
$UCSORGFRONT
 10
0.0
 20
0.0
 30
0.0
  9
$UCSORGBACK
 10
0.0
 20
0.0
 30
0.0
  9
$PUCSBASE
  2

  9
$PUCSNAME
  2

  9
$PUCSORG
 10
0.0
 20
0.0
 30
0.0
  9
$PUCSXDIR
 10
1.0
 20
0.0
 30
0.0
  9
$PUCSYDIR
 10
0.0
 20
1.0
 30
0.0
  9
$PUCSORTHOREF
  2

  9
$PUCSORTHOVIEW
 70
     0
  9
$PUCSORGTOP
 10
0.0
 20
0.0
 30
0.0
  9
$PUCSORGBOTTOM
 10
0.0
 20
0.0
 30
0.0
  9
$PUCSORGLEFT
 10
0.0
 20
0.0
 30
0.0
  9
$PUCSORGRIGHT
 10
0.0
 20
0.0
 30
0.0
  9
$PUCSORGFRONT
 10
0.0
 20
0.0
 30
0.0
  9
$PUCSORGBACK
 10
0.0
 20
0.0
 30
0.0
  9
$USERI1
 70
     0
  9
$USERI2
 70
     0
  9
$USERI3
 70
     0
  9
$USERI4
 70
     0
  9
$USERI5
 70
     0
  9
$USERR1
 40
0.0
  9
$USERR2
 40
0.0
  9
$USERR3
 40
0.0
  9
$USERR4
 40
0.0
  9
$USERR5
 40
0.0
  9
$WORLDVIEW
 70
     1
  9
$SHADEDGE
 70
     3
  9
$SHADEDIF
 70
    70
  9
$TILEMODE
 70
     1
  9
$MAXACTVP
 70
    16
  9
$PINSBASE
 10
0.0
 20
0.0
 30
0.0
  9
$PLIMCHECK
 70
     0
  9
$PEXTMIN
 10
1.000000000000000E+20
 20
1.000000000000000E+20
 30
1.000000000000000E+20
  9
$PEXTMAX
 10
-1.000000000000000E+20
 20
-1.000000000000000E+20
 30
-1.000000000000000E+20
  9
$PLIMMIN
 10
0.0
 20
0.0
  9
$PLIMMAX
 10
12.0
 20
9.0
  9
$UNITMODE
 70
     0
  9
$VISRETAIN
 70
     0
  9
$PLINEGEN
 70
     1
  9
$PSLTSCALE
 70
     0
  9
$TREEDEPTH
 70
  3020
  9
$CMLSTYLE
  2
Standard
  9
$CMLJUST
 70
     0
  9
$CMLSCALE
 40
1.0
  9
$PROXYGRAPHICS
 70
     0
  9
$MEASUREMENT
 70
     0
  9
$CELWEIGHT
370
     0
  9
$ENDCAPS
280
     0
  9
$JOINSTYLE
280
     0
  9
$LWDISPLAY
290
     0
  9
$INSUNITS
 70
     0
  9
$HYPERLINKBASE
  1

  9
$STYLESHEET
  1
MONOCHROME.STB
  9
$XEDIT
290
     1
  9
$CEPSNTYPE
380
     0
  9
$PSTYLEMODE
290
     0
  9
$FINGERPRINTGUID
  2

  9
$VERSIONGUID
  2
{5C09151A-DEE1-43D0-B972-FD668714DA24}
  9
$EXTNAMES
290
     1
  9
$PSVPSCALE
 40
0.0
  9
$OLESTARTUP
290
     0
  0
ENDSEC
  0
SECTION
  2
CLASSES
  0
CLASS
  1
IMAGE
  2
AcDbRasterImage
  3
ISM
 90
    32895
280
     0
281
     1
  0
CLASS
  1
DICTIONARYVAR
  2
AcDbDictionaryVar
  3
ObjectDBX Classes
 90
        0
280
     0
281
     0
  0
CLASS
  1
RASTERVARIABLES
  2
AcDbRasterVariables
  3
ISM
 90
    32768
280
     0
281
     0
  0
CLASS
  1
IMAGEDEF
  2
AcDbRasterImageDef
  3
ISM
 90
    32768
280
     0
281
     0
  0
CLASS
  1
IMAGEDEF_REACTOR
  2
AcDbRasterImageDefReactor
  3
ISM
 90
    32769
280
     0
281
     0
  0
CLASS
  1
IDBUFFER
  2
AcDbIdBuffer
  3
ObjectDBX Classes
 90
    32768
280
     0
281
     0
  0
CLASS
  1
SPATIAL_FILTER
  2
AcDbSpatialFilter
  3
ObjectDBX Classes
 90
    32768
280
     0
281
     0
  0
CLASS
  1
SORTENTSTABLE
  2
AcDbSortentsTable
  3
ObjectDBX Classes
 90
    32768
280
     0
281
     0
  0
CLASS
  1
LAYER_INDEX
  2
AcDbLayerIndex
  3
ObjectDBX Classes
 90
    32768
280
     0
281
     0
  0
CLASS
  1
SPATIAL_INDEX
  2
AcDbSpatialIndex
  3
ObjectDBX Classes
 90
    32768
280
     0
281
     0
  0
CLASS
  1
OBJECT_PTR
  2
CAseDLPNTableRecord
  3
ASE-LPNTableRecord
 90
    32769
280
     0
281
     0
  0
CLASS
  1
LAYOUT
  2
AcDbLayout
  3
ObjectDBX Classes
 90
        0
280
     0
281
     0
  0
CLASS
  1
PLOTSETTINGS
  2
AcDbPlotSettings
  3
ObjectDBX Classes
 90
    32768
280
     0
281
     0
  0
CLASS
  1
ACDBDICTIONARYWDFLT
  2
AcDbDictionaryWithDefault
  3
ObjectDBX Classes
 90
        0
280
     0
281
     0
  0
CLASS
  1
ACDBPLACEHOLDER
  2
AcDbPlaceHolder
  3
ObjectDBX Classes
 90
        0
280
     0
281
     0
  0
CLASS
  1
VBA_PROJECT
  2
AcDbVbaProject
  3
acad
 90
    32768
280
     0
281
     0
  0
CLASS
  1
WIPEOUT
  2
AcDbWipeout
  3
"WipeOut|Product Desc: Object Enabler for WipeOut entity^I^I^I^I^I^I|Company: Autodesk, Inc.^I^I^I^I^I^I|WEB Address: www.autodesk.com"
 90
    32895
280
     0
281
     1
  0
CLASS
  1
WIPEOUTVARIABLES
  2
AcDbWipeoutVariables
  3
"WipeOut|Product Desc:     WipeOut Dbx Application|Company:          Autodesk, Inc.|WEB Address:      www.autodesk.com"
 90
        0
280
     0
281
     0
  0
CLASS
  1
RTEXT
  2
RText
  3
RText|AutoCAD Express Tool|expresstools@autodesk.com
 90
    32768
280
     0
281
     1
  0
CLASS
  1
ARCALIGNEDTEXT
  2
AcDbArcAlignedText
  3
ATEXT|AutoCAD Express Tool|expresstools@autodesk.com
 90
    32768
280
     0
281
     1
  0
ENDSEC
  0
SECTION
  2
TABLES
  0
TABLE
  2
VPORT
  5
7
330
0
100
AcDbSymbolTable
 70
     2
  0
VPORT
  5
9DE
330
7
100
AcDbSymbolTableRecord
100
AcDbViewportTableRecord
  2
*Active
 70
     0
 10
0.0
 20
0.0
 11
1.0
 21
1.0
 12
867.7975140372057
 22
475.2482770210611
 13
0.0
 23
0.0
 14
1.0
 24
1.0
 15
0.0
 25
0.0
 16
0.0
 26
0.0
 36
1.0
 17
0.0
 27
0.0
 37
0.0
 40
600.7641598394757
 41
2.724550898203592
 42
50.0
 43
0.0
 44
0.0
 50
0.0
 51
0.0
 71
     0
 72
   100
 73
     1
 74
     1
 75
     0
 76
     0
 77
     0
 78
     0
281
     0
 65
     0
110
0.0
120
0.0
130
0.0
111
1.0
121
0.0
131
0.0
112
0.0
122
1.0
132
0.0
 79
     0
146
0.0
  0
ENDTAB
  0
TABLE
  2
LTYPE
  5
4
330
0
100
AcDbSymbolTable
 70
    12
  0
LTYPE
  5
11
330
4
100
AcDbSymbolTableRecord
100
AcDbLinetypeTableRecord
  2
ByBlock
 70
     0
  3

 72
    65
 73
     0
 40
0.0
  0
LTYPE
  5
12
330
4
100
AcDbSymbolTableRecord
100
AcDbLinetypeTableRecord
  2
ByLayer
 70
     0
  3

 72
    65
 73
     0
 40
0.0
  0
LTYPE
  5
13
330
4
100
AcDbSymbolTableRecord
100
AcDbLinetypeTableRecord
  2
Continuous
 70
     0
  3
Solid line
 72
    65
 73
     0
 40
0.0
  0
LTYPE
  5
24
330
4
100
AcDbSymbolTableRecord
100
AcDbLinetypeTableRecord
  2
DOT
 70
     0
  3
. . . . . . . . 
 72
    65
 73
     2
 40
1.0
 49
0.0
 74
     0
 49
-1.0
 74
     0
  0
LTYPE
  5
25
330
4
100
AcDbSymbolTableRecord
100
AcDbLinetypeTableRecord
  2
DASHED
 70
     0
  3
___  ___  ___  ___  
 72
    65
 73
     2
 40
4.0
 49
3.0
 74
     0
 49
-1.0
 74
     0
  0
LTYPE
  5
26
330
4
100
AcDbSymbolTableRecord
100
AcDbLinetypeTableRecord
  2
HIDDEN
 70
     0
  3
__ __ __ __ 
 72
    65
 73
     2
 40
3.0
 49
2.0
 74
     0
 49
-1.0
 74
     0
  0
LTYPE
  5
27
330
4
100
AcDbSymbolTableRecord
100
AcDbLinetypeTableRecord
  2
STITCH
 70
     0
  3
_ _ _ _ 
 72
    65
 73
     2
 40
2.0
 49
1.0
 74
     0
 49
-1.0
 74
     0
  0
LTYPE
  5
28
330
4
100
AcDbSymbolTableRecord
100
AcDbLinetypeTableRecord
  2
CENTER
 70
     0
  3
______  __  ______  __  
 72
    65
 73
     4
 40
43.0
 49
40.0
 74
     0
 49
-1.0
 74
     0
 49
1.0
 74
     0
 49
-1.0
 74
     0
  0
LTYPE
  5
29
330
4
100
AcDbSymbolTableRecord
100
AcDbLinetypeTableRecord
  2
DASHDOT
 70
     0
  3
____ . ____ . 
 72
    65
 73
     4
 40
32.0
 49
30.0
 74
     0
 49
-1.0
 74
     0
 49
0.0
 74
     0
 49
-1.0
 74
     0
  0
LTYPE
  5
2A
330
4
100
AcDbSymbolTableRecord
100
AcDbLinetypeTableRecord
  2
BORDER
 70
     0
  3
__ . __ . 
 72
    65
 73
     4
 40
22.0
 49
20.0
 74
     0
 49
-1.0
 74
     0
 49
0.0
 74
     0
 49
-1.0
 74
     0
  0
LTYPE
  5
2B
330
4
100
AcDbSymbolTableRecord
100
AcDbLinetypeTableRecord
  2
CUTTING
 70
     0
  3
________   ___   ___   
 72
    65
 73
     6
 40
45.0
 49
40.0
 74
     0
 49
-1.0
 74
     0
 49
1.0
 74
     0
 49
-1.0
 74
     0
 49
1.0
 74
     0
 49
-1.0
 74
     0
  0
LTYPE
  5
2C
330
4
100
AcDbSymbolTableRecord
100
AcDbLinetypeTableRecord
  2
PHANTOM
 70
     0
  3
______  __  __  
 72
    65
 73
     6
 40
35.0
 49
30.0
 74
     0
 49
-1.0
 74
     0
 49
1.0
 74
     0
 49
-1.0
 74
     0
 49
1.0
 74
     0
 49
-1.0
 74
     0
  0
LTYPE
  5
2D
330
4
100
AcDbSymbolTableRecord
100
AcDbLinetypeTableRecord
  2
DIVIDE
 70
     0
  3
____ . . ____ . . 
 72
    65
 73
     6
 40
23.0
 49
20.0
 74
     0
 49
-1.0
 74
     0
 49
0.0
 74
     0
 49
-1.0
 74
     0
 49
0.0
 74
     0
 49
-1.0
 74
     0
  0
LTYPE
  5
2B1
330
4
100
AcDbSymbolTableRecord
100
AcDbLinetypeTableRecord
  2
CENTER2
 70
     0
  3

 72
    65
 73
     4
 40
23.0
 49
20.0
 74
     0
 49
-1.0
 74
     0
 49
1.0
 74
     0
 49
-1.0
 74
     0
  0
ENDTAB
  0
TABLE
  2
LAYER
  5
2
102
{ACAD_XDICTIONARY
360
2B5
102
}
330
0
100
AcDbSymbolTable
 70
     6
  0
LAYER
  5
14
330
2
100
AcDbSymbolTableRecord
100
AcDbLayerTableRecord
  2
0
 70
     0
 62
     7
  6
Continuous
370
    -3
390
1D
  0
LAYER
  5
35
330
2
100
AcDbSymbolTableRecord
100
AcDbLayerTableRecord
  2
寸法線
 70
     0
 62
     7
  6
Continuous
370
    -3
390
1F
  0
LAYER
  5
47
330
2
100
AcDbSymbolTableRecord
100
AcDbLayerTableRecord
  2
ﾚｲﾔｰ1
 70
     0
 62
     7
  6
Continuous
370
    -3
390
1F
  0
LAYER
  5
1A8
330
2
100
AcDbSymbolTableRecord
100
AcDbLayerTableRecord
  2
Layer1
 70
     0
 62
     7
  6
Continuous
370
    -3
390
1F
  0
LAYER
  5
2B2
330
2
100
AcDbSymbolTableRecord
100
AcDbLayerTableRecord
  2
DEFPOINTS
 70
     0
 62
     7
  6
Continuous
290
     0
370
    -3
390
1D
  0
LAYER
  5
2B3
330
2
100
AcDbSymbolTableRecord
100
AcDbLayerTableRecord
  2
____1
 70
     0
 62
     3
  6
CENTER2
370
    -3
390
1D
  0
ENDTAB
  0
TABLE
  2
STYLE
  5
3
330
0
100
AcDbSymbolTable
 70
     2
  0
STYLE
  5
17
330
3
100
AcDbSymbolTableRecord
100
AcDbTextStyleTableRecord
  2
Standard
 70
     0
 40
0.0
 41
1.0
 50
0.0
 71
     0
 42
0.0
  3
txt
  4
extfont
  0
STYLE
  5
2B4
330
3
100
AcDbSymbolTableRecord
100
AcDbTextStyleTableRecord
  2
STYLE1
 70
     0
 40
0.0
 41
1.0
 50
0.0
 71
     0
 42
0.35
  3
ＭＳ ゴシック
  4

  0
ENDTAB
  0
TABLE
  2
VIEW
  5
5
330
0
100
AcDbSymbolTable
 70
     0
  0
ENDTAB
  0
TABLE
  2
UCS
  5
6
330
0
100
AcDbSymbolTable
 70
     0
  0
ENDTAB
  0
TABLE
  2
APPID
  5
8
330
0
100
AcDbSymbolTable
 70
     2
  0
APPID
  5
16
330
8
100
AcDbSymbolTableRecord
100
AcDbRegAppTableRecord
  2
ACAD
 70
     0
  0
APPID
  5
2A8
330
8
100
AcDbSymbolTableRecord
100
AcDbRegAppTableRecord
  2
DCO15
 70
     0
  0
ENDTAB
  0
TABLE
  2
DIMSTYLE
  5
9
330
0
100
AcDbSymbolTable
 70
     6
100
AcDbDimStyleTable
 71
     0
  0
DIMSTYLE
105
18
330
9
100
AcDbSymbolTableRecord
100
AcDbDimStyleTableRecord
  2
Standard
 70
     0
340
17
  0
DIMSTYLE
105
2E
330
9
100
AcDbSymbolTableRecord
100
AcDbDimStyleTableRecord
  2
VELDIM0
 70
     0
 41
6.0
 44
1.25
 46
5.0
 73
     0
 74
     0
 78
     8
140
5.9972220421
271
     3
340
17
  0
DIMSTYLE
105
37
330
9
100
AcDbSymbolTableRecord
100
AcDbDimStyleTableRecord
  2
VELDIM1
 70
     0
 41
6.0
 44
0.5
 46
3.0
 73
     0
 74
     0
 78
     8
140
5.9972220421
271
     3
340
17
  0
DIMSTYLE
105
E6
330
9
100
AcDbSymbolTableRecord
100
AcDbDimStyleTableRecord
  2
VELDIM2
 70
     0
 41
6.0
 44
0.5
 46
3.0
 73
     0
 74
     0
 78
     8
140
5.9972220421
271
     3
340
17
  0
DIMSTYLE
105
105
330
9
100
AcDbSymbolTableRecord
100
AcDbDimStyleTableRecord
  2
VELDIM3
 70
     0
 41
6.0
 44
1.25
 46
5.0
 73
     0
 74
     0
 78
     8
140
5.9972220421
271
     3
340
17
  0
DIMSTYLE
105
1BE
330
9
100
AcDbSymbolTableRecord
100
AcDbDimStyleTableRecord
  2
VELDIM4
 70
     0
 41
6.0
 44
1.25
 46
5.0
 73
     0
 74
     0
 78
     8
140
5.9972220421
271
     3
340
17
  0
ENDTAB
  0
TABLE
  2
BLOCK_RECORD
  5
1
330
0
100
AcDbSymbolTable
 70
     2
  0
BLOCK_RECORD
  5
A
330
1
100
AcDbSymbolTableRecord
100
AcDbBlockTableRecord
  2
*MODEL_SPACE
340
20
  0
BLOCK_RECORD
  5
B
330
1
100
AcDbSymbolTableRecord
100
AcDbBlockTableRecord
  2
*PAPER_SPACE
340
21
  0
BLOCK_RECORD
  5
1FC
330
1
100
AcDbSymbolTableRecord
100
AcDbBlockTableRecord
  2
CLUMP0
340
0
  0
BLOCK_RECORD
  5
279
330
1
100
AcDbSymbolTableRecord
100
AcDbBlockTableRecord
  2
CLUMP1
340
0
  0
ENDTAB
  0
ENDSEC
  0
SECTION
  2
BLOCKS
  0
BLOCK
  5
D
330
A
100
AcDbEntity
  8
0
100
AcDbBlockBegin
  2
*MODEL_SPACE
 70
     0
 10
0.0
 20
0.0
 30
0.0
  3
*MODEL_SPACE
  1

  0
ENDBLK
  5
E
330
A
100
AcDbEntity
  8
0
100
AcDbBlockEnd
  0
BLOCK
  5
F
330
B
100
AcDbEntity
 67
     1
  8
0
100
AcDbBlockBegin
  2
*PAPER_SPACE
 70
     0
 10
0.0
 20
0.0
 30
0.0
  3
*PAPER_SPACE
  1

  0
ENDBLK
  5
10
330
B
100
AcDbEntity
 67
     1
  8
0
100
AcDbBlockEnd
  0
BLOCK
  5
1FE
330
1FC
100
AcDbEntity
  8
0
100
AcDbBlockBegin
  2
CLUMP0
 70
     0
 10
0.0
 20
0.0
 30
0.0
  3
CLUMP0
  1

  0
ARC
  5
1FF
330
1FC
100
AcDbEntity
  8
Layer1
 62
     5
370
    18
100
AcDbCircle
 10
529.8180032809999
 20
-979.1552777906
 30
0.0
 40
1000.0
100
AcDbArc
 50
53.6900978674
 51
72.7386287741
  0
ARC
  5
200
330
1FC
100
AcDbEntity
  8
Layer1
 62
     5
370
    18
100
AcDbCircle
 10
529.8180032809999
 20
-979.1552777906
 30
0.0
 40
1032.0
100
AcDbArc
 50
54.9849812684
 51
68.5964022947
  0
LINE
  5
201
330
1FC
100
AcDbEntity
  8
Layer1
 62
     5
370
    18
100
AcDbLine
 10
1121.9704576457
 20
-133.9455577861
 30
0.0
 11
1121.9704576457
 21
-173.3293221463
 31
0.0
  0
LINE
  5
202
330
1FC
100
AcDbEntity
  8
Layer1
 62
     5
370
    18
100
AcDbLine
 10
824.4393040883
 20
-18.3293221463
 30
0.0
 11
906.4311774535999
 21
-18.3293221463
 31
0.0
  0
LINE
  5
203
330
1FC
100
AcDbEntity
  8
Layer1
 62
     5
370
    18
100
AcDbLine
 10
824.4393040883
 20
-21.3293226117
 30
0.0
 11
824.4393040883
 21
-18.3293221463
 31
0.0
  0
ARC
  5
204
330
1FC
100
AcDbEntity
  8
Layer1
 62
     5
370
    18
100
AcDbCircle
 10
827.4393040882998
 20
-21.3293221463
 30
0.0
 40
3.0
100
AcDbArc
 50
180.0000088888
 51
252.7386287741
  0
ENDBLK
  5
205
330
1FC
100
AcDbEntity
  8
0
100
AcDbBlockEnd
  0
BLOCK
  5
27B
330
279
100
AcDbEntity
  8
0
100
AcDbBlockBegin
  2
CLUMP1
 70
     0
 10
0.0
 20
0.0
 30
0.0
  3
CLUMP1
  1

  0
MTEXT
  5
27C
330
279
100
AcDbEntity
  8
ﾚｲﾔｰ1
370
     5
100
AcDbMText
 10
786.2399282905
 20
-288.4924830228
 30
0.0
 40
5.9972220421
 41
18.4230131025
 71
     1
 72
     1
  1
\W0.8;\fＭＳ ゴシック;\W1.0;ＨＬ
 73
     1
 44
1.0
1001
ACAD
1000
MTEXTBEGIN
1070
    73
1070
     1
1070
    44
1040
1.0
1070
    74
1070
     0
1000
MTEXTEND
  0
LINE
  5
27D
330
279
100
AcDbEntity
  8
ﾚｲﾔｰ1
370
     5
100
AcDbLine
 10
764.3169689955998
 20
-299.446770063
 30
0.0
 11
824.3169689955998
 21
-299.446770063
 31
0.0
  0
LINE
  5
27E
330
279
100
AcDbEntity
  8
ﾚｲﾔｰ1
370
     5
100
AcDbLine
 10
766.3169689955998
 20
-301.446770063
 30
0.0
 11
826.3169689955997
 21
-301.446770063
 31
0.0
  0
LINE
  5
27F
330
279
100
AcDbEntity
  8
ﾚｲﾔｰ1
370
     5
100
AcDbLine
 10
768.3169689955998
 20
-303.446770063
 30
0.0
 11
828.3169689955999
 21
-303.446770063
 31
0.0
  0
LINE
  5
280
330
279
100
AcDbEntity
  8
ﾚｲﾔｰ1
370
     5
100
AcDbLine
 10
770.3169689955998
 20
-305.446770063
 30
0.0
 11
830.3169689956
 21
-305.446770063
 31
0.0
  0
LINE
  5
281
330
279
100
AcDbEntity
  8
ﾚｲﾔｰ1
370
     5
100
AcDbLine
 10
772.3169689955998
 20
-307.446770063
 30
0.0
 11
832.3169689955998
 21
-307.446770063
 31
0.0
  0
LINE
  5
282
330
279
100
AcDbEntity
  8
ﾚｲﾔｰ1
370
     5
100
AcDbLine
 10
774.3169689955998
 20
-309.446770063
 30
0.0
 11
834.3169689955997
 21
-309.446770063
 31
0.0
  0
LINE
  5
283
330
279
100
AcDbEntity
  8
ﾚｲﾔｰ1
370
     5
100
AcDbLine
 10
776.3169689955998
 20
-311.446770063
 30
0.0
 11
836.3169689955999
 21
-311.446770063
 31
0.0
  0
LINE
  5
284
330
279
100
AcDbEntity
  8
ﾚｲﾔｰ1
370
     5
100
AcDbLine
 10
762.3169689955998
 20
-297.446770063
 30
0.0
 11
822.3169689956
 21
-297.446770063
 31
0.0
  0
ENDBLK
  5
285
330
279
100
AcDbEntity
  8
0
100
AcDbBlockEnd
  0
ENDSEC
  0
SECTION
  2
ENTITIES
  0
LWPOLYLINE
  5
662
330
A
100
AcDbEntity
  8
DEFPOINTS
100
AcDbPolyline
 90
        4
 70
     1
 43
0.0
 10
1288.795723038516
 20
772.9367040522665
 10
446.8007230385185
 20
772.9367040522665
 10
446.8007230385185
 20
177.5867040522664
 10
1288.795723038516
 20
177.5867040522664
  0
TEXT
  5
663
330
A
100
AcDbEntity
  8
____1
  6
Continuous
 62
     0
100
AcDbText
 10
1116.217390023077
 20
740.1071409934661
 30
0.0
 40
4.938888740539549
  1
H25.03
  7
STYLE1
100
AcDbText
  0
TEXT
  5
664
330
A
100
AcDbEntity
  8
____1
  6
Continuous
 62
     0
100
AcDbText
 10
1151.465959001324
 20
740.1071409934661
 30
0.0
 40
4.938888740539549
  1
ﾈｼﾞ仕様変更（木ﾈｼﾞ ⇒ 皿ﾀｯﾋﾟﾝﾈｼﾞ）
  7
STYLE1
100
AcDbText
  0
LINE
  5
665
330
A
100
AcDbEntity
  8
____1
  6
Continuous
 62
     0
100
AcDbLine
 10
1096.232152266434
 20
747.0219390517391
 30
0.0
 11
1091.282152266434
 21
738.448287554273
 31
0.0
  0
LINE
  5
666
330
A
100
AcDbEntity
  8
____1
  6
Continuous
 62
     0
100
AcDbLine
 10
1096.232152266434
 20
747.0219390517391
 30
0.0
 11
1101.182152266434
 21
738.448287554273
 31
0.0
  0
LINE
  5
667
330
A
100
AcDbEntity
  8
____1
  6
Continuous
 62
     0
100
AcDbLine
 10
1091.282152266434
 20
738.448287554273
 30
0.0
 11
1101.182152266434
 21
738.448287554273
 31
0.0
  0
TEXT
  5
668
330
A
100
AcDbEntity
  8
____1
  6
Continuous
 62
     0
100
AcDbText
 10
1094.768830447201
 20
739.5482361823887
 30
0.0
 40
4.682630310058592
  1
1
  7
STYLE1
100
AcDbText
  0
LINE
  5
669
330
A
100
AcDbEntity
  8
____1
  6
Continuous
 62
     0
100
AcDbLine
 10
1255.376392904445
 20
281.4222967514286
 30
0.0
 11
1250.426392904445
 21
272.8486452539625
 31
0.0
  0
LINE
  5
66A
330
A
100
AcDbEntity
  8
____1
  6
Continuous
 62
     0
100
AcDbLine
 10
1255.376392904445
 20
281.4222967514286
 30
0.0
 11
1260.326392904445
 21
272.8486452539625
 31
0.0
  0
LINE
  5
66B
330
A
100
AcDbEntity
  8
____1
  6
Continuous
 62
     0
100
AcDbLine
 10
1250.426392904445
 20
272.8486452539625
 30
0.0
 11
1260.326392904445
 21
272.8486452539625
 31
0.0
  0
TEXT
  5
66C
330
A
100
AcDbEntity
  8
____1
  6
Continuous
 62
     0
100
AcDbText
 10
1253.913071085212
 20
273.9485938820783
 30
0.0
 40
4.682630310058592
  1
1
  7
STYLE1
100
AcDbText
  0
TEXT
  5
66D
330
A
100
AcDbEntity
  8
____1
  6
Continuous
 62
     0
100
AcDbText
 10
1241.885835819693
 20
250.7820690977715
 30
0.0
 40
4.682630310058592
  1
1
  7
STYLE1
100
AcDbText
  0
LINE
  5
66E
330
A
100
AcDbEntity
  8
____1
  6
Continuous
 62
     0
100
AcDbLine
 10
1238.399157638927
 20
249.6821204696557
 30
0.0
 11
1248.299157638927
 21
249.6821204696557
 31
0.0
  0
LINE
  5
66F
330
A
100
AcDbEntity
  8
____1
  6
Continuous
 62
     0
100
AcDbLine
 10
1243.349157638927
 20
258.2557719671216
 30
0.0
 11
1248.299157638927
 21
249.6821204696557
 31
0.0
  0
LINE
  5
670
330
A
100
AcDbEntity
  8
____1
  6
Continuous
 62
     0
100
AcDbLine
 10
1243.349157638927
 20
258.2557719671216
 30
0.0
 11
1238.399157638927
 21
249.6821204696557
 31
0.0
  0
TEXT
  5
671
330
A
100
AcDbEntity
  8
____1
  6
Continuous
 62
     7
100
AcDbText
 10
1176.021794595373
 20
249.99981792148
 30
0.0
 40
6.773332977294923
  1
ＬＳ-７３５
  7
STYLE1
100
AcDbText
  0
TEXT
  5
672
330
A
100
AcDbEntity
  8
____1
  6
Continuous
 62
     0
100
AcDbText
 10
1182.106280289495
 20
750.0362919921408
 30
0.0
 40
4.938888740539549
  1
改　訂　内　容
  7
STYLE1
100
AcDbText
  0
LINE
  5
673
330
A
100
AcDbEntity
  8
____1
  6
Continuous
 62
     0
100
AcDbLine
 10
1146.800723038519
 20
737.5867040522662
 30
0.0
 11
1146.800723038519
 21
757.5867040522664
 31
0.0
  0
LINE
  5
674
330
A
100
AcDbEntity
  8
____1
  6
Continuous
 62
     0
100
AcDbLine
 10
1146.800723038519
 20
737.5867040522662
 30
0.0
 11
1146.800723038519
 21
757.5867040522664
 31
0.0
  0
LINE
  5
675
330
A
100
AcDbEntity
  8
____1
  6
Continuous
 62
     0
100
AcDbLine
 10
1106.800723038519
 20
737.5867040522662
 30
0.0
 11
1106.800723038519
 21
757.5867040522664
 31
0.0
  0
LINE
  5
676
330
A
100
AcDbEntity
  8
____1
  6
Continuous
 62
     0
100
AcDbLine
 10
1086.800723038519
 20
737.5867040522662
 30
0.0
 11
1086.800723038519
 21
757.5867040522664
 31
0.0
  0
LINE
  5
677
330
A
100
AcDbEntity
  8
____1
  6
Continuous
 62
     0
100
AcDbLine
 10
1096.232152266434
 20
756.9219390517387
 30
0.0
 11
1091.282152266434
 21
748.348287554273
 31
0.0
  0
LINE
  5
678
330
A
100
AcDbEntity
  8
____1
  6
Continuous
 62
     0
100
AcDbLine
 10
1096.232152266434
 20
756.9219390517387
 30
0.0
 11
1101.182152266434
 21
748.348287554273
 31
0.0
  0
LINE
  5
679
330
A
100
AcDbEntity
  8
____1
  6
Continuous
 62
     0
100
AcDbLine
 10
1091.282152266434
 20
748.348287554273
 30
0.0
 11
1101.182152266434
 21
748.348287554273
 31
0.0
  0
LINE
  5
67A
330
A
100
AcDbEntity
  8
____1
  6
Continuous
 62
     0
100
AcDbLine
 10
1086.800723038519
 20
737.5867040522664
 30
0.0
 11
1266.800723038518
 21
737.5867040522664
 31
0.0
  0
LINE
  5
67B
330
A
100
AcDbEntity
  8
____1
  6
Continuous
 62
     0
100
AcDbLine
 10
1086.800723038519
 20
747.5867040522664
 30
0.0
 11
1266.800723038518
 21
747.5867040522664
 31
0.0
  0
TEXT
  5
67C
330
A
100
AcDbEntity
  8
____1
  6
Continuous
 62
     0
100
AcDbText
 10
1116.217390023077
 20
750.0362919921408
 30
0.0
 40
4.938888740539549
  1
改訂日
  7
STYLE1
100
AcDbText
  0
POLYLINE
  5
67D
330
A
100
AcDbEntity
  8
____1
  6
Continuous
 62
     0
100
AcDb3dPolyline
 66
     1
 10
0.0
 20
0.0
 30
0.0
 70
     8
  0
VERTEX
  5
67E
330
67D
100
AcDbEntity
  8
____1
 62
     0
100
AcDbVertex
100
AcDb3dPolylineVertex
 10
1073.176502947467
 20
209.9098651999284
 30
0.0
 70
    32
  0
VERTEX
  5
67F
330
67D
100
AcDbEntity
  8
____1
 62
     0
100
AcDbVertex
100
AcDb3dPolylineVertex
 10
1074.554889775738
 20
208.6496991766235
 30
0.0
 70
    32
  0
VERTEX
  5
680
330
67D
100
AcDbEntity
  8
____1
 62
     0
100
AcDbVertex
100
AcDb3dPolylineVertex
 10
1075.955813800549
 20
207.4312056228796
 30
0.0
 70
    32
  0
VERTEX
  5
681
330
67D
100
AcDbEntity
  8
____1
 62
     0
100
AcDbVertex
100
AcDb3dPolylineVertex
 10
1077.401812218436
 20
206.2960570082578
 30
0.0
 70
    32
  0
VERTEX
  5
682
330
67D
100
AcDbEntity
  8
____1
 62
     0
100
AcDbVertex
100
AcDb3dPolylineVertex
 10
1078.91542222594
 20
205.2859258023189
 30
0.0
 70
    32
  0
VERTEX
  5
683
330
67D
100
AcDbEntity
  8
____1
 62
     0
100
AcDbVertex
100
AcDb3dPolylineVertex
 10
1078.915422229857
 20
205.2859257999668
 30
0.0
 70
    32
  0
SEQEND
  5
684
330
67D
100
AcDbEntity
  8
____1
 62
     0
  0
LINE
  5
685
330
A
100
AcDbEntity
  8
____1
  6
Continuous
 62
     7
100
AcDbLine
 10
971.8007230385186
 20
230.5867040522665
 30
0.0
 11
1041.800723038518
 21
230.5867040522665
 31
0.0
  0
TEXT
  5
686
330
A
100
AcDbEntity
  8
____1
  6
Continuous
 62
     7
100
AcDbText
 10
966.8007230385184
 20
233.5408100848397
 30
0.0
 40
5.644444274902342
  1
 設計　　 岸本
  7
STYLE1
100
AcDbText
  0
TEXT
  5
687
330
A
100
AcDbEntity
  8
____1
  6
Continuous
 62
     7
100
AcDbText
 10
966.8007230385184
 20
222.5408100848397
 30
0.0
 40
5.644444274902342
  1
 製図　　 岸本
  7
STYLE1
100
AcDbText
  0
TEXT
  5
688
330
A
100
AcDbEntity
  8
____1
  6
Continuous
 62
     7
100
AcDbText
 10
968.9110862557726
 20
255.5408100848397
 30
0.0
 40
5.644444274902342
  1
 日　　付
  7
STYLE1
100
AcDbText
  0
TEXT
  5
689
330
A
100
AcDbEntity
  8
____1
  6
Continuous
 62
     7
100
AcDbText
 10
1129.034066712158
 20
255.539657931681
 30
0.0
 40
5.644444274902342
  1
型番
  7
STYLE1
100
AcDbText
  0
TEXT
  5
68A
330
A
100
AcDbEntity
  8
____1
  6
Continuous
 62
     7
100
AcDbText
 10
1129.034066712158
 20
233.5396579316809
 30
0.0
 40
5.644444274902342
  1
品名
  7
STYLE1
100
AcDbText
  0
TEXT
  5
68B
330
A
100
AcDbEntity
  8
____1
  6
Continuous
 62
     7
100
AcDbText
 10
1129.034066712158
 20
211.539657931681
 30
0.0
 40
5.644444274902342
  1
図番
  7
STYLE1
100
AcDbText
  0
LINE
  5
68C
330
A
100
AcDbEntity
  8
____1
  6
Continuous
 62
     5
100
AcDbLine
 10
466.8007230385184
 20
197.5867040522665
 30
0.0
 11
466.8007230385184
 21
757.5867040522664
 31
0.0
  0
ARC
  5
68D
330
A
100
AcDbEntity
  8
____1
  6
Continuous
 62
     0
100
AcDbCircle
 10
1075.480502947467
 20
211.7227686270567
 30
0.0
 40
7.296000000000057
100
AcDbArc
 50
331.3992813832578
 51
358.4920422457636
  0
LINE
  5
68E
330
A
100
AcDbEntity
  8
____1
  6
Continuous
 62
     0
100
AcDbLine
 10
1065.188139311104
 20
208.2667686270567
 30
0.0
 11
1068.068139311104
 21
208.2667686270567
 31
0.0
  0
ARC
  5
68F
330
A
100
AcDbEntity
  8
____1
  6
Continuous
 62
     0
100
AcDbCircle
 10
1077.976502947467
 20
212.1067686270567
 30
0.0
 40
10.56000000000012
100
AcDbArc
 50
270.0
 51
302.5449588540466
  0
LINE
  5
690
330
A
100
AcDbEntity
  8
____1
  6
Continuous
 62
     0
100
AcDbLine
 10
1068.068139311104
 20
211.1467686270568
 30
0.0
 11
1065.188139311104
 21
211.1467686270568
 31
0.0
  0
LINE
  5
691
330
A
100
AcDbEntity
  8
____1
  6
Continuous
 62
     0
100
AcDbLine
 10
1065.188139311104
 20
211.1467686270568
 30
0.0
 11
1065.188139311104
 21
212.1067686270567
 31
0.0
  0
LINE
  5
692
330
A
100
AcDbEntity
  8
____1
  6
Continuous
 62
     0
100
AcDbLine
 10
1094.714069632172
 20
211.7227686270567
 30
0.0
 11
1099.511509632172
 21
211.7227686270567
 31
0.0
  0
LINE
  5
693
330
A
100
AcDbEntity
  8
____1
  6
Continuous
 62
     0
100
AcDbLine
 10
1104.668444235346
 20
212.6995280967536
 30
0.0
 11
1106.234069632172
 21
214.9867686270567
 31
0.0
  0
LINE
  5
694
330
A
100
AcDbEntity
  8
____1
  6
Continuous
 62
     0
100
AcDbLine
 10
1051.748139311104
 20
208.2667686270567
 30
0.0
 11
1051.748139311104
 21
205.3867686270567
 31
0.0
  0
LINE
  5
695
330
A
100
AcDbEntity
  8
____1
  6
Continuous
 62
     7
100
AcDbLine
 10
971.8007230385186
 20
252.5867040522665
 30
0.0
 11
1001.800723038519
 21
252.5867040522665
 31
0.0
  0
LINE
  5
696
330
A
100
AcDbEntity
  8
____1
  6
Continuous
 62
     7
100
AcDbLine
 10
1011.800723038519
 20
252.5867040522665
 30
0.0
 11
1041.800723038518
 21
252.5867040522665
 31
0.0
  0
LINE
  5
697
330
A
100
AcDbEntity
  8
____1
  6
Continuous
 62
     7
100
AcDbLine
 10
1051.800723038518
 20
252.5867040522665
 30
0.0
 11
1081.800723038518
 21
252.5867040522665
 31
0.0
  0
LINE
  5
698
330
A
100
AcDbEntity
  8
____1
  6
Continuous
 62
     7
100
AcDbLine
 10
1051.800723038518
 20
230.5867040522665
 30
0.0
 11
1081.800723038518
 21
230.5867040522665
 31
0.0
  0
LINE
  5
699
330
A
100
AcDbEntity
  8
____1
  6
Continuous
 62
     7
100
AcDbLine
 10
1006.800723038518
 20
263.5867040522665
 30
0.0
 11
1006.800723038518
 21
241.5867040522665
 31
0.0
  0
LINE
  5
69A
330
A
100
AcDbEntity
  8
____1
  6
Continuous
 62
     0
100
AcDbLine
 10
1104.949521195777
 20
211.7227686270567
 30
0.0
 11
1104.668444235346
 21
212.6995280967536
 31
0.0
  0
LINE
  5
69B
330
A
100
AcDbEntity
  8
____1
  6
Continuous
 62
     0
100
AcDbLine
 10
1090.456502947467
 20
214.9867686270567
 30
0.0
 11
1073.176502947467
 21
214.9867686270567
 31
0.0
  0
POLYLINE
  5
69C
330
A
100
AcDbEntity
  8
____1
  6
Continuous
 62
     0
100
AcDb3dPolyline
 66
     1
 10
0.0
 20
0.0
 30
0.0
 70
     8
  0
VERTEX
  5
69D
330
69C
100
AcDbEntity
  8
____1
 62
     0
100
AcDbVertex
100
AcDb3dPolylineVertex
 10
1086.010968148675
 20
205.3416306689836
 30
0.0
 70
    32
  0
VERTEX
  5
69E
330
69C
100
AcDbEntity
  8
____1
 62
     0
100
AcDbVertex
100
AcDb3dPolylineVertex
 10
1087.092088240031
 20
205.0641926274717
 30
0.0
 70
    32
  0
VERTEX
  5
69F
330
69C
100
AcDbEntity
  8
____1
 62
     0
100
AcDbVertex
100
AcDb3dPolylineVertex
 10
1088.199148567109
 20
204.8285167554143
 30
0.0
 70
    32
  0
VERTEX
  5
6A0
330
69C
100
AcDbEntity
  8
____1
 62
     0
100
AcDbVertex
100
AcDb3dPolylineVertex
 10
1090.456502947467
 20
204.4267686270567
 30
0.0
 70
    32
  0
SEQEND
  5
6A1
330
69C
100
AcDbEntity
  8
____1
 62
     0
  0
POLYLINE
  5
6A2
330
A
100
AcDbEntity
  8
____1
  6
Continuous
 62
     0
100
AcDb3dPolyline
 66
     1
 10
0.0
 20
0.0
 30
0.0
 70
     8
  0
VERTEX
  5
6A3
330
6A2
100
AcDbEntity
  8
____1
 62
     0
100
AcDbVertex
100
AcDb3dPolylineVertex
 10
1079.770386931565
 20
209.4422008975901
 30
0.0
 70
    32
  0
VERTEX
  5
6A4
330
6A2
100
AcDbEntity
  8
____1
 62
     0
100
AcDbVertex
100
AcDb3dPolylineVertex
 10
1080.58056788104
 20
208.5540771348048
 30
0.0
 70
    32
  0
VERTEX
  5
6A5
330
6A2
100
AcDbEntity
  8
____1
 62
     0
100
AcDbVertex
100
AcDb3dPolylineVertex
 10
1081.424278983377
 20
207.7199348369819
 30
0.0
 70
    32
  0
SEQEND
  5
6A6
330
6A2
100
AcDbEntity
  8
____1
 62
     0
  0
POLYLINE
  5
6A7
330
A
100
AcDbEntity
  8
____1
  6
Continuous
 62
     0
100
AcDb3dPolyline
 66
     1
 10
0.0
 20
0.0
 30
0.0
 70
     8
  0
VERTEX
  5
6A8
330
6A7
100
AcDbEntity
  8
____1
 62
     0
100
AcDbVertex
100
AcDb3dPolylineVertex
 10
1083.65737359214
 20
203.2050098840612
 30
0.0
 70
    32
  0
VERTEX
  5
6A9
330
6A7
100
AcDbEntity
  8
____1
 62
     0
100
AcDbVertex
100
AcDb3dPolylineVertex
 10
1085.318110311524
 20
202.7182521523048
 30
0.0
 70
    32
  0
VERTEX
  5
6AA
330
6A7
100
AcDbEntity
  8
____1
 62
     0
100
AcDbVertex
100
AcDb3dPolylineVertex
 10
1087.012314704721
 20
202.2933779212671
 30
0.0
 70
    32
  0
VERTEX
  5
6AB
330
6A7
100
AcDbEntity
  8
____1
 62
     0
100
AcDbVertex
100
AcDb3dPolylineVertex
 10
1090.456502947467
 20
201.5467686270568
 30
0.0
 70
    32
  0
SEQEND
  5
6AC
330
6A7
100
AcDbEntity
  8
____1
 62
     0
  0
LINE
  5
6AD
330
A
100
AcDbEntity
  8
____1
  6
Continuous
 62
     0
100
AcDbLine
 10
1088.536502947467
 20
212.1067686270567
 30
0.0
 11
1090.456502947467
 21
214.9867686270567
 31
0.0
  0
LINE
  5
6AE
330
A
100
AcDbEntity
  8
____1
  6
Continuous
 62
     0
100
AcDbLine
 10
1073.176502947467
 20
204.4267686270567
 30
0.0
 11
1073.176502947467
 21
201.5467686270568
 31
0.0
  0
LINE
  5
6AF
330
A
100
AcDbEntity
  8
____1
  6
Continuous
 62
     0
100
AcDbLine
 10
1073.176502947467
 20
204.4267686270567
 30
0.0
 11
1075.480502947467
 21
204.4267686270567
 31
0.0
  0
LINE
  5
6B0
330
A
100
AcDbEntity
  8
____1
  6
Continuous
 62
     0
100
AcDbLine
 10
1098.554069632172
 20
214.9867686270567
 30
0.0
 11
1106.234069632172
 21
214.9867686270567
 31
0.0
  0
LINE
  5
6B1
330
A
100
AcDbEntity
  8
____1
  6
Continuous
 62
     0
100
AcDbLine
 10
1051.748139311104
 20
211.1467686270568
 30
0.0
 11
1049.538019992922
 21
211.1467686270568
 31
0.0
  0
LINE
  5
6B2
330
A
100
AcDbEntity
  8
____1
  6
Continuous
 62
     0
100
AcDbLine
 10
1111.994069632171
 20
206.7307686270567
 30
0.0
 11
1111.994069632171
 21
203.2747686270568
 31
0.0
  0
LINE
  5
6B3
330
A
100
AcDbEntity
  8
____1
  6
Continuous
 62
     0
100
AcDbLine
 10
1090.456502947467
 20
204.4267686270567
 30
0.0
 11
1090.456502947467
 21
201.5467686270568
 31
0.0
  0
LINE
  5
6B4
330
A
100
AcDbEntity
  8
____1
  6
Continuous
 62
     0
100
AcDbLine
 10
1051.748139311104
 20
208.2667686270567
 30
0.0
 11
1051.458019992922
 21
208.2667686270567
 31
0.0
  0
LINE
  5
6B5
330
A
100
AcDbEntity
  8
____1
  6
Continuous
 62
     0
100
AcDbLine
 10
1051.748139311104
 20
204.4267686270567
 30
0.0
 11
1051.748139311104
 21
201.5467686270568
 31
0.0
  0
LINE
  5
6B6
330
A
100
AcDbEntity
  8
____1
  6
Continuous
 62
     0
100
AcDbLine
 10
1073.176502947467
 20
201.5467686270568
 30
0.0
 11
1073.176502947467
 21
204.4267686270567
 31
0.0
  0
LINE
  5
6B7
330
A
100
AcDbEntity
  8
____1
  6
Continuous
 62
     0
100
AcDbLine
 10
1056.548139311104
 20
208.2667686270567
 30
0.0
 11
1060.388139311104
 21
208.2667686270567
 31
0.0
  0
LINE
  5
6B8
330
A
100
AcDbEntity
  8
____1
  6
Continuous
 62
     0
100
AcDbLine
 10
1108.154069632171
 20
200.5867686270567
 30
0.0
 11
1107.380557940627
 21
203.2747686270568
 31
0.0
  0
LINE
  5
6B9
330
A
100
AcDbEntity
  8
____1
  6
Continuous
 62
     0
100
AcDbLine
 10
1049.538019992922
 20
208.2667686270567
 30
0.0
 11
1051.458019992922
 21
208.2667686270567
 31
0.0
  0
LINE
  5
6BA
330
A
100
AcDbEntity
  8
____1
  6
Continuous
 62
     0
100
AcDbLine
 10
1094.714069632172
 20
206.7307686270567
 30
0.0
 11
1100.975829632172
 21
206.7307686270567
 31
0.0
  0
LINE
  5
6BB
330
A
100
AcDbEntity
  8
____1
  6
Continuous
 62
     5
100
AcDbLine
 10
966.8007230385184
 20
197.5867040522665
 30
0.0
 11
466.8007230385184
 21
197.5867040522665
 31
0.0
  0
LINE
  5
6BC
330
A
100
AcDbEntity
  8
____1
  6
Continuous
 62
     5
100
AcDbLine
 10
1266.800723038518
 20
757.5867040522664
 30
0.0
 11
466.8007230385184
 21
757.5867040522664
 31
0.0
  0
LINE
  5
6BD
330
A
100
AcDbEntity
  8
____1
  6
Continuous
 62
     5
100
AcDbLine
 10
1266.800723038518
 20
263.5867040522665
 30
0.0
 11
1266.800723038518
 21
757.5867040522664
 31
0.0
  0
LINE
  5
6BE
330
A
100
AcDbEntity
  8
____1
  6
Continuous
 62
     0
100
AcDbLine
 10
1106.386042908643
 20
206.7307686270567
 30
0.0
 11
1105.944036227761
 21
208.2667686270567
 31
0.0
  0
LINE
  5
6BF
330
A
100
AcDbEntity
  8
____1
  6
Continuous
 62
     0
100
AcDbLine
 10
1102.778069632172
 20
200.5867686270567
 30
0.0
 11
1101.989589632172
 21
203.2747686270568
 31
0.0
  0
LINE
  5
6C0
330
A
100
AcDbEntity
  8
____1
  6
Continuous
 62
     0
100
AcDbLine
 10
1057.508139311104
 20
204.4267686270567
 30
0.0
 11
1051.748139311104
 21
204.4267686270567
 31
0.0
  0
LINE
  5
6C1
330
A
100
AcDbEntity
  8
____1
  6
Continuous
 62
     0
100
AcDbLine
 10
1073.176502947467
 20
211.5307686270567
 30
0.0
 11
1082.776502947467
 21
211.5307686270567
 31
0.0
  0
LINE
  5
6C2
330
A
100
AcDbEntity
  8
____1
  6
Continuous
 62
     0
100
AcDbLine
 10
1111.994069632171
 20
211.7227686270567
 30
0.0
 11
1111.994069632171
 21
208.2667686270567
 31
0.0
  0
LINE
  5
6C3
330
A
100
AcDbEntity
  8
____1
  6
Continuous
 62
     0
100
AcDbLine
 10
1094.714069632172
 20
208.2667686270567
 30
0.0
 11
1100.525269632171
 21
208.2667686270567
 31
0.0
  0
LINE
  5
6C4
330
A
100
AcDbEntity
  8
____1
  6
Continuous
 62
     0
100
AcDbLine
 10
1094.714069632172
 20
206.7307686270567
 30
0.0
 11
1094.714069632172
 21
203.2747686270568
 31
0.0
  0
LINE
  5
6C5
330
A
100
AcDbEntity
  8
____1
  6
Continuous
 62
     0
100
AcDbLine
 10
1056.548139311104
 20
205.3867686270567
 30
0.0
 11
1056.548139311104
 21
208.2667686270567
 31
0.0
  0
LINE
  5
6C6
330
A
100
AcDbEntity
  8
____1
  6
Continuous
 62
     0
100
AcDbLine
 10
1060.388139311104
 20
211.1467686270568
 30
0.0
 11
1056.548139311104
 21
211.1467686270568
 31
0.0
  0
LINE
  5
6C7
330
A
100
AcDbEntity
  8
____1
  6
Continuous
 62
     0
100
AcDbLine
 10
1059.428139311104
 20
214.9867686270567
 30
0.0
 11
1051.748139311104
 21
214.9867686270567
 31
0.0
  0
LINE
  5
6C8
330
A
100
AcDbEntity
  8
____1
  6
Continuous
 62
     0
100
AcDbLine
 10
1056.548139311104
 20
212.1067686270567
 30
0.0
 11
1059.428139311104
 21
214.9867686270567
 31
0.0
  0
LINE
  5
6C9
330
A
100
AcDbEntity
  8
____1
  6
Continuous
 62
     0
100
AcDbLine
 10
1051.748139311104
 20
214.9867686270567
 30
0.0
 11
1051.748139311104
 21
211.1467686270568
 31
0.0
  0
LINE
  5
6CA
330
A
100
AcDbEntity
  8
____1
  6
Continuous
 62
     0
100
AcDbLine
 10
1107.380557940627
 20
203.2747686270568
 30
0.0
 11
1111.994069632171
 21
203.2747686270568
 31
0.0
  0
LINE
  5
6CB
330
A
100
AcDbEntity
  8
____1
  6
Continuous
 62
     0
100
AcDbLine
 10
1099.511509632172
 20
211.7227686270567
 30
0.0
 11
1098.554069632172
 21
214.9867686270567
 31
0.0
  0
LINE
  5
6CC
330
A
100
AcDbEntity
  8
____1
  6
Continuous
 62
     0
100
AcDbLine
 10
1104.949521195777
 20
211.7227686270567
 30
0.0
 11
1111.994069632171
 21
211.7227686270567
 31
0.0
  0
LINE
  5
6CD
330
A
100
AcDbEntity
  8
____1
  6
Continuous
 62
     7
100
AcDbLine
 10
1046.800723038518
 20
241.5867040522665
 30
0.0
 11
1046.800723038518
 21
219.5867040522665
 31
0.0
  0
LINE
  5
6CE
330
A
100
AcDbEntity
  8
____1
  6
Continuous
 62
     7
100
AcDbLine
 10
966.8007230385184
 20
263.5867040522665
 30
0.0
 11
966.8007230385184
 21
197.5867040522665
 31
0.0
  0
TEXT
  5
6CF
330
A
100
AcDbEntity
  8
____1
  6
Continuous
 62
     0
100
AcDbText
 10
1084.371459480994
 20
267.3469608742376
 30
0.0
 40
6.773332977294923
  1
          天板側　SUS 皿ﾀｯﾋﾟﾝﾈｼﾞ 5x16
  7
STYLE1
100
AcDbText
  0
TEXT
  5
6D0
330
A
100
AcDbEntity
  8
____1
  6
Continuous
 62
     0
100
AcDbText
 10
1084.371459480994
 20
275.8136270958564
 30
0.0
 40
6.773332977294923
  1
取付ビス：壁側　　SUS 皿ﾀｯﾋﾟﾝﾈｼﾞ 5x45
  7
STYLE1
100
AcDbText
  0
TEXT
  5
6D1
330
A
100
AcDbEntity
  8
____1
  6
Continuous
 62
     7
100
AcDbText
 10
1157.489730541915
 20
227.5589271546102
 30
0.0
 40
6.773332977294923
  1
カウンターブラケット
  7
STYLE1
100
AcDbText
  0
LINE
  5
6D2
330
A
100
AcDbEntity
  8
____1
  6
Continuous
 62
     0
100
AcDbLine
 10
1051.748139311104
 20
205.3867686270567
 30
0.0
 11
1056.548139311104
 21
205.3867686270567
 31
0.0
  0
LINE
  5
6D3
330
A
100
AcDbEntity
  8
____1
  6
Continuous
 62
     0
100
AcDbLine
 10
1065.188139311104
 20
212.1067686270567
 30
0.0
 11
1068.068139311104
 21
214.9867686270567
 31
0.0
  0
LINE
  5
6D4
330
A
100
AcDbEntity
  8
____1
  6
Continuous
 62
     0
100
AcDbLine
 10
1100.975829632172
 20
206.7307686270567
 30
0.0
 11
1100.525269632171
 21
208.2667686270567
 31
0.0
  0
LINE
  5
6D5
330
A
100
AcDbEntity
  8
____1
  6
Continuous
 62
     0
100
AcDbLine
 10
1056.548139311104
 20
211.1467686270568
 30
0.0
 11
1056.548139311104
 21
212.1067686270567
 31
0.0
  0
LINE
  5
6D6
330
A
100
AcDbEntity
  8
____1
  6
Continuous
 62
     0
100
AcDbLine
 10
1086.352924103475
 20
205.6764367058275
 30
0.0
 11
1086.010968148674
 21
205.3416306689836
 31
0.0
  0
LINE
  5
6D7
330
A
100
AcDbEntity
  8
____1
  6
Continuous
 62
     0
100
AcDbLine
 10
1088.536502947467
 20
212.1067686270567
 30
0.0
 11
1090.456502947467
 21
214.9867686270567
 31
0.0
  0
LINE
  5
6D8
330
A
100
AcDbEntity
  8
____1
  6
Continuous
 62
     0
100
AcDbLine
 10
1105.944036227761
 20
208.2667686270567
 30
0.0
 11
1111.994069632171
 21
208.2667686270567
 31
0.0
  0
LINE
  5
6D9
330
A
100
AcDbEntity
  8
____1
  6
Continuous
 62
     0
100
AcDbLine
 10
1073.176502947467
 20
201.5467686270568
 30
0.0
 11
1077.976502947467
 21
201.5467686270568
 31
0.0
  0
LINE
  5
6DA
330
A
100
AcDbEntity
  8
____1
  6
Continuous
 62
     0
100
AcDbLine
 10
1060.388139311104
 20
214.9867686270567
 30
0.0
 11
1060.388139311104
 21
211.1467686270568
 31
0.0
  0
LINE
  5
6DB
330
A
100
AcDbEntity
  8
____1
  6
Continuous
 62
     5
100
AcDbLine
 10
966.8007230385184
 20
197.5867040522665
 30
0.0
 11
1266.800723038518
 21
197.5867040522665
 31
0.0
  0
LINE
  5
6DC
330
A
100
AcDbEntity
  8
____1
  6
Continuous
 62
     0
100
AcDbLine
 10
1081.886222931506
 20
208.2301524892455
 30
0.0
 11
1081.424278983377
 21
207.719934836982
 31
0.0
  0
LINE
  5
6DD
330
A
100
AcDbEntity
  8
____1
  6
Continuous
 62
     0
100
AcDbLine
 10
1073.176502947467
 20
210.5283169134925
 30
0.0
 11
1080.856502947467
 21
210.5283169134925
 31
0.0
  0
ARC
  5
6DE
330
A
100
AcDbEntity
  8
____1
  6
Continuous
 62
     0
100
AcDbCircle
 10
1075.480502947467
 20
211.7227686270567
 30
0.0
 40
7.29599999999998
100
AcDbArc
 50
270.0
 51
298.0859048152069
  0
LINE
  5
6DF
330
A
100
AcDbEntity
  8
____1
  6
Continuous
 62
     0
100
AcDbLine
 10
1080.856502947467
 20
210.5283169134925
 30
0.0
 11
1079.770386931565
 21
209.4422008975901
 31
0.0
  0
LINE
  5
6E0
330
A
100
AcDbEntity
  8
____1
  6
Continuous
 62
     0
100
AcDbLine
 10
1073.176502947467
 20
209.9098651999284
 30
0.0
 11
1073.176502947467
 21
210.5283169134925
 31
0.0
  0
LINE
  5
6E1
330
A
100
AcDbEntity
  8
____1
  6
Continuous
 62
     0
100
AcDbLine
 10
1049.538019992922
 20
211.1467686270568
 30
0.0
 11
1049.538019992922
 21
208.2667686270567
 31
0.0
  0
LINE
  5
6E2
330
A
100
AcDbEntity
  8
____1
  6
Continuous
 62
     0
100
AcDbLine
 10
1068.068139311104
 20
211.1467686270568
 30
0.0
 11
1068.068139311104
 21
208.2667686270567
 31
0.0
  0
LINE
  5
6E3
330
A
100
AcDbEntity
  8
____1
  6
Continuous
 62
     0
100
AcDbLine
 10
1068.068139311104
 20
214.9867686270567
 30
0.0
 11
1060.388139311104
 21
214.9867686270567
 31
0.0
  0
LINE
  5
6E4
330
A
100
AcDbEntity
  8
____1
  6
Continuous
 62
     0
100
AcDbLine
 10
1073.176502947467
 20
214.9867686270567
 30
0.0
 11
1073.176502947467
 21
211.5307686270567
 31
0.0
  0
LINE
  5
6E5
330
A
100
AcDbEntity
  8
____1
  6
Continuous
 62
     5
100
AcDbLine
 10
1266.800723038518
 20
197.5867040522665
 30
0.0
 11
1266.800723038518
 21
263.5867040522665
 31
0.0
  0
ARC
  5
6E6
330
A
100
AcDbEntity
  8
____1
  6
Continuous
 62
     0
100
AcDbCircle
 10
1059.428139311104
 20
207.3067686270567
 30
0.0
 40
5.759999999999998
100
AcDbArc
 50
270.0
 51
0.0
  0
LINE
  5
6E7
330
A
100
AcDbEntity
  8
____1
  6
Continuous
 62
     0
100
AcDbLine
 10
1106.386042908643
 20
206.7307686270567
 30
0.0
 11
1111.994069632171
 21
206.7307686270567
 31
0.0
  0
ARC
  5
6E8
330
A
100
AcDbEntity
  8
____1
  6
Continuous
 62
     0
100
AcDbCircle
 10
1077.976502947467
 20
212.1067686270567
 30
0.0
 40
10.56
100
AcDbArc
 50
322.4876119796974
 51
0.0
  0
LINE
  5
6E9
330
A
100
AcDbEntity
  8
____1
  6
Continuous
 62
     0
100
AcDbLine
 10
1051.748139311104
 20
201.5467686270568
 30
0.0
 11
1059.428139311104
 21
201.5467686270568
 31
0.0
  0
LINE
  5
6EA
330
A
100
AcDbEntity
  8
____1
  6
Continuous
 62
     0
100
AcDbLine
 10
1094.714069632172
 20
203.2747686270568
 30
0.0
 11
1101.989589632172
 21
203.2747686270568
 31
0.0
  0
ARC
  5
6EB
330
A
100
AcDbEntity
  8
____1
  6
Continuous
 62
     0
100
AcDbCircle
 10
1057.508139311104
 20
207.3067686270567
 30
0.0
 40
2.879999999999999
100
AcDbArc
 50
270.0
 51
0.0
  0
LINE
  5
6EC
330
A
100
AcDbEntity
  8
____1
  6
Continuous
 62
     0
100
AcDbLine
 10
1065.188139311104
 20
207.3067686270567
 30
0.0
 11
1065.188139311104
 21
208.2667686270567
 31
0.0
  0
LINE
  5
6ED
330
A
100
AcDbEntity
  8
____1
  6
Continuous
 62
     7
100
AcDbLine
 10
1266.800723038518
 20
263.5867040522665
 30
0.0
 11
966.8007230385184
 21
263.5867040522665
 31
0.0
  0
LINE
  5
6EE
330
A
100
AcDbEntity
  8
____1
  6
Continuous
 62
     7
100
AcDbLine
 10
1126.800723038518
 20
263.5867040522665
 30
0.0
 11
1126.800723038518
 21
197.5867040522665
 31
0.0
  0
LINE
  5
6EF
330
A
100
AcDbEntity
  8
____1
  6
Continuous
 62
     7
100
AcDbLine
 10
1086.800723038518
 20
263.5867040522665
 30
0.0
 11
1086.800723038518
 21
219.5867040522665
 31
0.0
  0
LINE
  5
6F0
330
A
100
AcDbEntity
  8
____1
  6
Continuous
 62
     7
100
AcDbLine
 10
1046.800723038518
 20
263.5867040522665
 30
0.0
 11
1046.800723038518
 21
241.5867040522665
 31
0.0
  0
LINE
  5
6F1
330
A
100
AcDbEntity
  8
____1
  6
Continuous
 62
     7
100
AcDbLine
 10
966.8007230385184
 20
219.5867040522665
 30
0.0
 11
1266.800723038518
 21
219.5867040522665
 31
0.0
  0
TEXT
  5
6F2
330
A
100
AcDbEntity
  8
____1
  6
Continuous
 62
     7
100
AcDbText
 10
990.8195815886559
 20
202.7509431870291
 30
0.0
 40
10.15999984741211
  1
株式会社
  7
STYLE1
100
AcDbText
  0
LINE
  5
6F3
330
A
100
AcDbEntity
  8
____1
  6
Continuous
 62
     0
100
AcDbLine
 10
1094.714069632172
 20
211.7227686270567
 30
0.0
 11
1094.714069632172
 21
208.2667686270567
 31
0.0
  0
TEXT
  5
6F4
330
A
100
AcDbEntity
  8
____1
  6
Continuous
 62
     7
100
AcDbText
 10
1088.911086255772
 20
255.5408100848397
 30
0.0
 40
5.644444274902342
  1
 検　　印
  7
STYLE1
100
AcDbText
  0
LINE
  5
6F5
330
A
100
AcDbEntity
  8
____1
  6
Continuous
 62
     7
100
AcDbLine
 10
1086.800723038518
 20
252.5867040522665
 30
0.0
 11
1126.800723038518
 21
252.5867040522665
 31
0.0
  0
LINE
  5
6F6
330
A
100
AcDbEntity
  8
____1
  6
Continuous
 62
     7
100
AcDbLine
 10
1126.800723038518
 20
241.5867040522665
 30
0.0
 11
1266.800723038518
 21
241.5867040522665
 31
0.0
  0
LINE
  5
6F7
330
A
100
AcDbEntity
  8
____1
  6
Continuous
 62
     7
100
AcDbLine
 10
966.8007230385184
 20
241.5867040522665
 30
0.0
 11
1086.800723038518
 21
241.5867040522665
 31
0.0
  0
TEXT
  5
6F8
330
A
100
AcDbEntity
  8
____1
  6
Continuous
 62
     7
100
AcDbText
 10
1048.911086255772
 20
233.5408100848397
 30
0.0
 40
5.644444274902342
  1
 尺　　度
  7
STYLE1
100
AcDbText
  0
TEXT
  5
6F9
330
A
100
AcDbEntity
  8
____1
  6
Continuous
 62
     7
100
AcDbText
 10
1059.74516769489
 20
222.5264753974445
 30
0.0
 40
5.644444274902342
  1
1：2
  7
STYLE1
100
AcDbText
  0
TEXT
  5
6FA
330
A
100
AcDbEntity
  8
____1
  6
Continuous
 62
     7
100
AcDbText
 10
1048.911086255772
 20
255.5408100848397
 30
0.0
 40
5.644444274902342
  1
 板　　厚
  7
STYLE1
100
AcDbText
  0
TEXT
  5
6FB
330
A
100
AcDbEntity
  8
____1
  6
Continuous
 62
     7
100
AcDbText
 10
1008.911086255772
 20
255.5408100848397
 30
0.0
 40
5.644444274902342
  1
 材　　質
  7
STYLE1
100
AcDbText
  0
TEXT
  5
6FC
330
A
100
AcDbEntity
  8
____1
  6
Continuous
 62
     7
100
AcDbText
 10
977.9812783821464
 20
244.5264753974445
 30
0.0
 40
5.644444274902342
  1
H14.5
  7
STYLE1
100
AcDbText
  0
LINE
  5
6FD
330
A
100
AcDbEntity
  8
____1
  6
Continuous
 62
     0
100
AcDbLine
 10
1108.154069632171
 20
200.5867686270567
 30
0.0
 11
1102.778069632172
 21
200.5867686270567
 31
0.0
  0
LINE
  5
6FE
330
A
100
AcDbEntity
  8
____1
  6
Continuous
 62
     0
100
AcDbLine
 10
1060.388139311104
 20
208.2667686270567
 30
0.0
 11
1060.388139311104
 21
207.3067686270567
 31
0.0
  0
MTEXT
  5
6FF
330
A
100
AcDbEntity
  8
____1
  6
Continuous
 62
     0
100
AcDbMText
 10
966.8007230385184
 20
274.9262850116529
 30
0.0
 40
6.773332977294923
 41
121.977129013
 71
     1
 72
     1
  1
\W0.8;\fＭＳ ゴシック;\W1.0;表面処理：電解研磨仕上げ
  7
STYLE1
 73
     1
 44
1.0
1001
ACAD
1000
MTEXTBEGIN
1070
    73
1070
     1
1070
    44
1040
1.0
1070
    74
1070
     0
1000
MTEXTEND
  0
MTEXT
  5
700
330
A
100
AcDbEntity
  8
____1
  6
Continuous
 62
     7
100
AcDbMText
 10
1066.800723038518
 20
250.5530957854665
 30
0.0
 40
5.644444274902342
 41
46.0
 71
     2
 72
     1
  1
\W0.8;\fＭＳ ゴシック;\W1.0;5.0t
  7
STYLE1
 73
     1
 44
1.0
1001
ACAD
1000
MTEXTBEGIN
1070
    73
1070
     1
1070
    44
1040
1.0
1070
    74
1070
     0
1000
MTEXTEND
  0
MTEXT
  5
701
330
A
100
AcDbEntity
  8
____1
  6
Continuous
 62
     7
100
AcDbMText
 10
1026.800723038518
 20
250.5530957854665
 30
0.0
 40
5.644444274902342
 41
46.0
 71
     2
 72
     1
  1
\W0.8;\fＭＳ ゴシック;\W1.0;SUS304 HL
  7
STYLE1
 73
     1
 44
1.0
1001
ACAD
1000
MTEXTBEGIN
1070
    73
1070
     1
1070
    44
1040
1.0
1070
    74
1070
     0
1000
MTEXTEND
  0
SOLID
  5
83C
330
A
100
AcDbEntity
  8
寸法線
100
AcDbTrace
 10
1082.390055373618
 20
369.6319839565664
 30
0.0
 11
1076.614778453318
 21
371.8447145082665
 31
0.0
 12
1078.335507762418
 22
374.3021706411665
 32
0.0
 13
1078.703871174319
 23
372.2130779201665
 33
0.0
  0
LINE
  5
83D
330
A
100
AcDbEntity
  8
寸法線
100
AcDbLine
 10
1082.390055373618
 20
369.6319839565664
 30
0.0
 11
1000.376709429618
 21
427.0583470203665
 31
0.0
  0
TEXT
  5
83E
330
A
100
AcDbEntity
  8
寸法線
100
AcDbText
 10
1001.793124531318
 20
429.0811974244665
 30
0.0
 40
5.9972220421
  1
3-Φ6穴　皿Φ11
 50
325.0
100
AcDbText
  0
SOLID
  5
83F
330
A
100
AcDbEntity
  8
寸法線
100
AcDbTrace
 10
776.8996813719186
 20
301.5370821570665
 30
0.0
 11
782.8996813719186
 21
303.0370821570665
 31
0.0
 12
782.8996813719186
 22
300.0370821570665
 32
0.0
 13
781.3996813719186
 23
301.5370821570665
 33
0.0
  0
LINE
  5
840
330
A
100
AcDbEntity
  8
寸法線
100
AcDbLine
 10
776.8996813719186
 20
301.5370821570665
 30
0.0
 11
779.8996813719186
 21
301.5370821570665
 31
0.0
  0
SOLID
  5
841
330
A
100
AcDbEntity
  8
寸法線
100
AcDbTrace
 10
756.8996813719186
 20
301.5370821570665
 30
0.0
 11
750.8996813719186
 21
300.0370821570665
 31
0.0
 12
750.8996813719186
 22
303.0370821570665
 32
0.0
 13
752.3996813719186
 23
301.5370821570665
 33
0.0
  0
LINE
  5
842
330
A
100
AcDbEntity
  8
寸法線
100
AcDbLine
 10
756.8996813719186
 20
301.5370821570665
 30
0.0
 11
753.8996813719186
 21
301.5370821570665
 31
0.0
  0
LINE
  5
843
330
A
100
AcDbEntity
  8
寸法線
100
AcDbLine
 10
756.8996813719186
 20
301.5370821570665
 30
0.0
 11
759.8441260282187
 21
301.5370821570665
 31
0.0
  0
LINE
  5
844
330
A
100
AcDbEntity
  8
寸法線
100
AcDbLine
 10
756.8996813719186
 20
301.5370821570665
 30
0.0
 11
773.9552367155186
 21
301.5370821570665
 31
0.0
  0
LINE
  5
845
330
A
100
AcDbEntity
  8
寸法線
100
AcDbLine
 10
776.8996813719186
 20
301.5370821570665
 30
0.0
 11
759.8441260282187
 21
301.5370821570665
 31
0.0
  0
LINE
  5
846
330
A
100
AcDbEntity
  8
寸法線
100
AcDbLine
 10
776.8996813719186
 20
301.5370821570665
 30
0.0
 11
773.9552367155186
 21
301.5370821570665
 31
0.0
  0
LINE
  5
847
330
A
100
AcDbEntity
  8
寸法線
100
AcDbLine
 10
756.8996813719186
 20
350.4834488439665
 30
0.0
 11
756.8996813719186
 21
301.0370821570665
 31
0.0
  0
LINE
  5
848
330
A
100
AcDbEntity
  8
寸法線
100
AcDbLine
 10
776.8996813719186
 20
342.9834488439665
 30
0.0
 11
776.8996813719186
 21
301.0370821570665
 31
0.0
  0
TEXT
  5
849
330
A
100
AcDbEntity
  8
寸法線
100
AcDbText
 10
763.3719037000187
 20
303.5954154585665
 30
0.0
 40
5.9972220421
  1
20
100
AcDbText
  0
SOLID
  5
84A
330
A
100
AcDbEntity
  8
寸法線
100
AcDbTrace
 10
638.8237048094183
 20
637.1751806147662
 30
0.0
 11
640.3237048094186
 21
631.1751806147664
 31
0.0
 12
637.3237048094186
 22
631.1751806147664
 32
0.0
 13
638.8237048094183
 23
632.6751806147662
 33
0.0
  0
LINE
  5
84B
330
A
100
AcDbEntity
  8
寸法線
100
AcDbLine
 10
638.8237048094183
 20
637.1751806147662
 30
0.0
 11
638.8237048094183
 21
634.1751806147664
 31
0.0
  0
SOLID
  5
84C
330
A
100
AcDbEntity
  8
寸法線
100
AcDbTrace
 10
638.8237048094183
 20
657.1751806147664
 30
0.0
 11
637.3237048094186
 21
663.1751806147664
 31
0.0
 12
640.3237048094186
 22
663.1751806147664
 32
0.0
 13
638.8237048094183
 23
661.6751806147664
 33
0.0
  0
LINE
  5
84D
330
A
100
AcDbEntity
  8
寸法線
100
AcDbLine
 10
638.8237048094183
 20
657.1751806147664
 30
0.0
 11
638.8237048094183
 21
660.1751806147664
 31
0.0
  0
LINE
  5
84E
330
A
100
AcDbEntity
  8
寸法線
100
AcDbLine
 10
638.8237048094183
 20
657.1751806147664
 30
0.0
 11
638.8237048094183
 21
640.1196252711665
 31
0.0
  0
LINE
  5
84F
330
A
100
AcDbEntity
  8
寸法線
100
AcDbLine
 10
638.8237048094183
 20
657.1751806147664
 30
0.0
 11
638.8237048094183
 21
654.2307359583665
 31
0.0
  0
LINE
  5
850
330
A
100
AcDbEntity
  8
寸法線
100
AcDbLine
 10
638.8237048094183
 20
637.1751806147662
 30
0.0
 11
638.8237048094183
 21
640.1196252711665
 31
0.0
  0
LINE
  5
851
330
A
100
AcDbEntity
  8
寸法線
100
AcDbLine
 10
638.8237048094183
 20
637.1751806147662
 30
0.0
 11
638.8237048094183
 21
654.2307359583665
 31
0.0
  0
LINE
  5
852
330
A
100
AcDbEntity
  8
寸法線
100
AcDbLine
 10
587.3237048094186
 20
657.1751806147664
 30
0.0
 11
639.3237048094183
 21
657.1751806147664
 31
0.0
  0
LINE
  5
853
330
A
100
AcDbEntity
  8
寸法線
100
AcDbLine
 10
617.3237048094184
 20
637.1751806147662
 30
0.0
 11
639.3237048094183
 21
637.1751806147662
 31
0.0
  0
TEXT
  5
854
330
A
100
AcDbEntity
  8
寸法線
100
AcDbText
 10
636.7653715078184
 20
643.6474029429665
 30
0.0
 40
5.9972220421
  1
20
 50
90.0
100
AcDbText
  0
SOLID
  5
855
330
A
100
AcDbEntity
  8
寸法線
100
AcDbTrace
 10
618.8237048094186
 20
731.5729394689665
 30
0.0
 11
612.8237048094185
 21
730.0729394689665
 31
0.0
 12
612.8237048094185
 22
733.0729394689665
 32
0.0
 13
614.3237048094183
 23
731.5729394689665
 33
0.0
  0
LINE
  5
856
330
A
100
AcDbEntity
  8
寸法線
100
AcDbLine
 10
618.8237048094186
 20
731.5729394689665
 30
0.0
 11
615.8237048094186
 21
731.5729394689665
 31
0.0
  0
SOLID
  5
857
330
A
100
AcDbEntity
  8
寸法線
100
AcDbTrace
 10
568.8237048094186
 20
731.5729394689665
 30
0.0
 11
574.8237048094186
 21
733.0729394689665
 31
0.0
 12
574.8237048094186
 22
730.0729394689665
 32
0.0
 13
573.3237048094186
 23
731.5729394689665
 33
0.0
  0
LINE
  5
858
330
A
100
AcDbEntity
  8
寸法線
100
AcDbLine
 10
568.8237048094186
 20
731.5729394689665
 30
0.0
 11
571.8237048094183
 21
731.5729394689665
 31
0.0
  0
LINE
  5
859
330
A
100
AcDbEntity
  8
寸法線
100
AcDbLine
 10
568.8237048094186
 20
731.5729394689665
 30
0.0
 11
586.7681494657185
 21
731.5729394689665
 31
0.0
  0
LINE
  5
85A
330
A
100
AcDbEntity
  8
寸法線
100
AcDbLine
 10
568.8237048094186
 20
731.5729394689665
 30
0.0
 11
600.8792601530185
 21
731.5729394689665
 31
0.0
  0
LINE
  5
85B
330
A
100
AcDbEntity
  8
寸法線
100
AcDbLine
 10
618.8237048094186
 20
731.5729394689665
 30
0.0
 11
586.7681494657185
 21
731.5729394689665
 31
0.0
  0
LINE
  5
85C
330
A
100
AcDbEntity
  8
寸法線
100
AcDbLine
 10
618.8237048094186
 20
731.5729394689665
 30
0.0
 11
600.8792601530185
 21
731.5729394689665
 31
0.0
  0
LINE
  5
85D
330
A
100
AcDbEntity
  8
寸法線
100
AcDbLine
 10
568.8237048094186
 20
688.1751806147665
 30
0.0
 11
568.8237048094186
 21
732.0729394689664
 31
0.0
  0
LINE
  5
85E
330
A
100
AcDbEntity
  8
寸法線
100
AcDbLine
 10
618.8237048094186
 20
688.1751806147665
 30
0.0
 11
618.8237048094186
 21
732.0729394689664
 31
0.0
  0
TEXT
  5
85F
330
A
100
AcDbEntity
  8
寸法線
100
AcDbText
 10
590.2959271375188
 20
733.6312727704664
 30
0.0
 40
5.9972220421
  1
50
100
AcDbText
  0
SOLID
  5
860
330
A
100
AcDbEntity
  8
寸法線
100
AcDbTrace
 10
1201.383774084318
 20
336.4834488439665
 30
0.0
 11
1199.883774084319
 21
342.4834488439665
 31
0.0
 12
1202.883774084319
 22
342.4834488439665
 32
0.0
 13
1201.383774084318
 23
340.9834488439665
 33
0.0
  0
LINE
  5
861
330
A
100
AcDbEntity
  8
寸法線
100
AcDbLine
 10
1201.383774084318
 20
336.4834488439665
 30
0.0
 11
1201.383774084318
 21
339.4834488439665
 31
0.0
  0
SOLID
  5
862
330
A
100
AcDbEntity
  8
寸法線
100
AcDbTrace
 10
1201.383774084318
 20
366.4834488439665
 30
0.0
 11
1202.883774084319
 21
360.4834488439665
 31
0.0
 12
1199.883774084319
 22
360.4834488439665
 32
0.0
 13
1201.383774084318
 23
361.9834488439665
 33
0.0
  0
LINE
  5
863
330
A
100
AcDbEntity
  8
寸法線
100
AcDbLine
 10
1201.383774084318
 20
366.4834488439665
 30
0.0
 11
1201.383774084318
 21
363.4834488439665
 31
0.0
  0
LINE
  5
864
330
A
100
AcDbEntity
  8
寸法線
100
AcDbLine
 10
1201.383774084318
 20
366.4834488439665
 30
0.0
 11
1201.383774084318
 21
344.4278935002665
 31
0.0
  0
LINE
  5
865
330
A
100
AcDbEntity
  8
寸法線
100
AcDbLine
 10
1201.383774084318
 20
366.4834488439665
 30
0.0
 11
1201.383774084318
 21
358.5390041875665
 31
0.0
  0
LINE
  5
866
330
A
100
AcDbEntity
  8
寸法線
100
AcDbLine
 10
1201.383774084318
 20
336.4834488439665
 30
0.0
 11
1201.383774084318
 21
344.4278935002665
 31
0.0
  0
LINE
  5
867
330
A
100
AcDbEntity
  8
寸法線
100
AcDbLine
 10
1201.383774084318
 20
336.4834488439665
 30
0.0
 11
1201.383774084318
 21
358.5390041875665
 31
0.0
  0
LINE
  5
868
330
A
100
AcDbEntity
  8
寸法線
100
AcDbLine
 10
1095.399681371918
 20
366.4834488439665
 30
0.0
 11
1201.883774084319
 21
366.4834488439665
 31
0.0
  0
LINE
  5
869
330
A
100
AcDbEntity
  8
寸法線
100
AcDbLine
 10
940.3996813719187
 20
336.4834488439665
 30
0.0
 11
1201.883774084319
 21
336.4834488439665
 31
0.0
  0
TEXT
  5
86A
330
A
100
AcDbEntity
  8
寸法線
100
AcDbText
 10
1199.325440782718
 20
347.9556711720665
 30
0.0
 40
5.9972220421
  1
30
 50
90.0
100
AcDbText
  0
SOLID
  5
86B
330
A
100
AcDbEntity
  8
寸法線
100
AcDbTrace
 10
854.3685278145185
 20
467.1751806147663
 30
0.0
 11
860.3685278145183
 21
468.6751806147665
 31
0.0
 12
860.3685278145183
 22
465.6751806147664
 32
0.0
 13
858.8685278145185
 23
467.1751806147663
 33
0.0
  0
LINE
  5
86C
330
A
100
AcDbEntity
  8
寸法線
100
AcDbLine
 10
854.3685278145185
 20
467.1751806147663
 30
0.0
 11
857.3685278145186
 21
467.1751806147663
 31
0.0
  0
SOLID
  5
86D
330
A
100
AcDbEntity
  8
寸法線
100
AcDbTrace
 10
1151.899681371918
 20
467.1751806147663
 30
0.0
 11
1145.899681371918
 21
465.6751806147664
 31
0.0
 12
1145.899681371918
 22
468.6751806147665
 32
0.0
 13
1147.399681371918
 23
467.1751806147663
 33
0.0
  0
LINE
  5
86E
330
A
100
AcDbEntity
  8
寸法線
100
AcDbLine
 10
1151.899681371918
 20
467.1751806147663
 30
0.0
 11
1148.899681371919
 21
467.1751806147663
 31
0.0
  0
LINE
  5
86F
330
A
100
AcDbEntity
  8
寸法線
100
AcDbLine
 10
1151.899681371918
 20
467.1751806147663
 30
0.0
 11
983.7313273982188
 21
467.1751806147663
 31
0.0
  0
LINE
  5
870
330
A
100
AcDbEntity
  8
寸法線
100
AcDbLine
 10
1151.899681371918
 20
467.1751806147663
 30
0.0
 11
1022.536881788118
 21
467.1751806147663
 31
0.0
  0
LINE
  5
871
330
A
100
AcDbEntity
  8
寸法線
100
AcDbLine
 10
854.3685278145185
 20
467.1751806147663
 30
0.0
 11
983.7313273982188
 21
467.1751806147663
 31
0.0
  0
LINE
  5
872
330
A
100
AcDbEntity
  8
寸法線
100
AcDbLine
 10
854.3685278145185
 20
467.1751806147663
 30
0.0
 11
1022.536881788118
 21
467.1751806147663
 31
0.0
  0
LINE
  5
873
330
A
100
AcDbEntity
  8
寸法線
100
AcDbLine
 10
1151.899681371918
 20
486.1751806147665
 30
0.0
 11
1151.899681371918
 21
466.6751806147663
 31
0.0
  0
LINE
  5
874
330
A
100
AcDbEntity
  8
寸法線
100
AcDbLine
 10
854.3685278145185
 20
681.1751806147664
 30
0.0
 11
854.3685278145185
 21
466.6751806147663
 31
0.0
  0
TEXT
  5
875
330
A
100
AcDbEntity
  8
寸法線
100
AcDbText
 10
987.2591050700188
 20
469.2335139162664
 30
0.0
 40
5.9972220421
  1
補強(300)
100
AcDbText
  0
SOLID
  5
876
330
A
100
AcDbEntity
  8
寸法線
100
AcDbTrace
 10
618.8237048094186
 20
718.3806914069665
 30
0.0
 11
624.8237048094186
 21
719.8806914069665
 31
0.0
 12
624.8237048094186
 22
716.8806914069665
 32
0.0
 13
623.3237048094186
 23
718.3806914069665
 33
0.0
  0
LINE
  5
877
330
A
100
AcDbEntity
  8
寸法線
100
AcDbLine
 10
618.8237048094186
 20
718.3806914069665
 30
0.0
 11
621.8237048094183
 21
718.3806914069665
 31
0.0
  0
SOLID
  5
878
330
A
100
AcDbEntity
  8
寸法線
100
AcDbTrace
 10
608.8237048094184
 20
718.3806914069665
 30
0.0
 11
602.8237048094186
 21
716.8806914069665
 31
0.0
 12
602.8237048094186
 22
719.8806914069665
 32
0.0
 13
604.3237048094185
 23
718.3806914069665
 33
0.0
  0
LINE
  5
879
330
A
100
AcDbEntity
  8
寸法線
100
AcDbLine
 10
608.8237048094184
 20
718.3806914069665
 30
0.0
 11
605.8237048094183
 21
718.3806914069665
 31
0.0
  0
LINE
  5
87A
330
A
100
AcDbEntity
  8
寸法線
100
AcDbLine
 10
608.8237048094184
 20
718.3806914069665
 30
0.0
 11
608.8237048094184
 21
718.3806914069665
 31
0.0
  0
LINE
  5
87B
330
A
100
AcDbEntity
  8
寸法線
100
AcDbLine
 10
608.8237048094184
 20
718.3806914069665
 30
0.0
 11
618.8237048094186
 21
718.3806914069665
 31
0.0
  0
LINE
  5
87C
330
A
100
AcDbEntity
  8
寸法線
100
AcDbLine
 10
618.8237048094186
 20
718.3806914069665
 30
0.0
 11
608.8237048094184
 21
718.3806914069665
 31
0.0
  0
LINE
  5
87D
330
A
100
AcDbEntity
  8
寸法線
100
AcDbLine
 10
618.8237048094186
 20
718.3806914069665
 30
0.0
 11
618.8237048094186
 21
718.3806914069665
 31
0.0
  0
LINE
  5
87E
330
A
100
AcDbEntity
  8
寸法線
100
AcDbLine
 10
608.8237048094184
 20
645.6751806147664
 30
0.0
 11
608.8237048094184
 21
718.8806914069665
 31
0.0
  0
LINE
  5
87F
330
A
100
AcDbEntity
  8
寸法線
100
AcDbLine
 10
618.8237048094186
 20
688.1751806147665
 30
0.0
 11
618.8237048094186
 21
718.8806914069665
 31
0.0
  0
TEXT
  5
880
330
A
100
AcDbEntity
  8
寸法線
100
AcDbText
 10
610.2959271375184
 20
720.4390247084661
 30
0.0
 40
5.9972220421
  1
10
100
AcDbText
  0
SOLID
  5
881
330
A
100
AcDbEntity
  8
寸法線
100
AcDbTrace
 10
596.3237048094184
 20
702.1751806147665
 30
0.0
 11
602.3237048094186
 21
703.6751806147665
 31
0.0
 12
602.3237048094186
 22
700.6751806147665
 32
0.0
 13
600.8237048094184
 23
702.1751806147665
 33
0.0
  0
LINE
  5
882
330
A
100
AcDbEntity
  8
寸法線
100
AcDbLine
 10
596.3237048094184
 20
702.1751806147665
 30
0.0
 11
599.3237048094186
 21
702.1751806147665
 31
0.0
  0
SOLID
  5
883
330
A
100
AcDbEntity
  8
寸法線
100
AcDbTrace
 10
591.3237048094186
 20
702.1751806147665
 30
0.0
 11
585.3237048094183
 21
700.6751806147665
 31
0.0
 12
585.3237048094183
 22
703.6751806147665
 32
0.0
 13
586.8237048094186
 23
702.1751806147665
 33
0.0
  0
LINE
  5
884
330
A
100
AcDbEntity
  8
寸法線
100
AcDbLine
 10
591.3237048094186
 20
702.1751806147665
 30
0.0
 11
588.3237048094184
 21
702.1751806147665
 31
0.0
  0
LINE
  5
885
330
A
100
AcDbEntity
  8
寸法線
100
AcDbLine
 10
591.3237048094186
 20
702.1751806147665
 30
0.0
 11
591.3237048094186
 21
702.1751806147665
 31
0.0
  0
LINE
  5
886
330
A
100
AcDbEntity
  8
寸法線
100
AcDbLine
 10
591.3237048094186
 20
702.1751806147665
 30
0.0
 11
596.3237048094184
 21
702.1751806147665
 31
0.0
  0
LINE
  5
887
330
A
100
AcDbEntity
  8
寸法線
100
AcDbLine
 10
596.3237048094184
 20
702.1751806147665
 30
0.0
 11
591.3237048094186
 21
702.1751806147665
 31
0.0
  0
LINE
  5
888
330
A
100
AcDbEntity
  8
寸法線
100
AcDbLine
 10
596.3237048094184
 20
702.1751806147665
 30
0.0
 11
596.3237048094184
 21
702.1751806147665
 31
0.0
  0
LINE
  5
889
330
A
100
AcDbEntity
  8
寸法線
100
AcDbLine
 10
591.3237048094186
 20
683.1751806147664
 30
0.0
 11
591.3237048094186
 21
702.6751806147665
 31
0.0
  0
LINE
  5
88A
330
A
100
AcDbEntity
  8
寸法線
100
AcDbLine
 10
596.3237048094184
 20
683.1751806147664
 30
0.0
 11
596.3237048094184
 21
702.6751806147665
 31
0.0
  0
TEXT
  5
88B
330
A
100
AcDbEntity
  8
寸法線
100
AcDbText
 10
592.0598159734185
 20
704.2335139162664
 30
0.0
 40
5.9972220421
  1
5
100
AcDbText
  0
SOLID
  5
88C
330
A
100
AcDbEntity
  8
寸法線
100
AcDbTrace
 10
638.8237048094183
 20
597.1751806147664
 30
0.0
 11
640.3237048094186
 21
591.1751806147662
 31
0.0
 12
637.3237048094186
 22
591.1751806147662
 32
0.0
 13
638.8237048094183
 23
592.6751806147664
 33
0.0
  0
LINE
  5
88D
330
A
100
AcDbEntity
  8
寸法線
100
AcDbLine
 10
638.8237048094183
 20
597.1751806147664
 30
0.0
 11
638.8237048094183
 21
594.1751806147664
 31
0.0
  0
SOLID
  5
88E
330
A
100
AcDbEntity
  8
寸法線
100
AcDbTrace
 10
638.8237048094183
 20
617.1751806147664
 30
0.0
 11
637.3237048094186
 21
623.1751806147664
 31
0.0
 12
640.3237048094186
 22
623.1751806147664
 32
0.0
 13
638.8237048094183
 23
621.6751806147664
 33
0.0
  0
LINE
  5
88F
330
A
100
AcDbEntity
  8
寸法線
100
AcDbLine
 10
638.8237048094183
 20
617.1751806147664
 30
0.0
 11
638.8237048094183
 21
620.1751806147662
 31
0.0
  0
LINE
  5
890
330
A
100
AcDbEntity
  8
寸法線
100
AcDbLine
 10
638.8237048094183
 20
617.1751806147664
 30
0.0
 11
638.8237048094183
 21
600.1196252711666
 31
0.0
  0
LINE
  5
891
330
A
100
AcDbEntity
  8
寸法線
100
AcDbLine
 10
638.8237048094183
 20
617.1751806147664
 30
0.0
 11
638.8237048094183
 21
614.2307359583663
 31
0.0
  0
LINE
  5
892
330
A
100
AcDbEntity
  8
寸法線
100
AcDbLine
 10
638.8237048094183
 20
597.1751806147664
 30
0.0
 11
638.8237048094183
 21
600.1196252711666
 31
0.0
  0
LINE
  5
893
330
A
100
AcDbEntity
  8
寸法線
100
AcDbLine
 10
638.8237048094183
 20
597.1751806147664
 30
0.0
 11
638.8237048094183
 21
614.2307359583663
 31
0.0
  0
LINE
  5
894
330
A
100
AcDbEntity
  8
寸法線
100
AcDbLine
 10
587.3237048094186
 20
617.1751806147664
 30
0.0
 11
639.3237048094183
 21
617.1751806147664
 31
0.0
  0
LINE
  5
895
330
A
100
AcDbEntity
  8
寸法線
100
AcDbLine
 10
617.3237048094184
 20
597.1751806147664
 30
0.0
 11
639.3237048094183
 21
597.1751806147664
 31
0.0
  0
TEXT
  5
896
330
A
100
AcDbEntity
  8
寸法線
100
AcDbText
 10
636.7653715078184
 20
603.6474029429665
 30
0.0
 40
5.9972220421
  1
20
 50
90.0
100
AcDbText
  0
SOLID
  5
897
330
A
100
AcDbEntity
  8
寸法線
100
AcDbTrace
 10
638.8237048094183
 20
507.1751806147664
 30
0.0
 11
637.3237048094186
 21
513.1751806147664
 31
0.0
 12
640.3237048094186
 22
513.1751806147664
 32
0.0
 13
638.8237048094183
 23
511.6751806147664
 33
0.0
  0
LINE
  5
898
330
A
100
AcDbEntity
  8
寸法線
100
AcDbLine
 10
638.8237048094183
 20
507.1751806147664
 30
0.0
 11
638.8237048094183
 21
510.1751806147665
 31
0.0
  0
SOLID
  5
899
330
A
100
AcDbEntity
  8
寸法線
100
AcDbTrace
 10
638.8237048094183
 20
597.1751806147664
 30
0.0
 11
640.3237048094186
 21
591.1751806147662
 31
0.0
 12
637.3237048094186
 22
591.1751806147662
 32
0.0
 13
638.8237048094183
 23
592.6751806147664
 33
0.0
  0
LINE
  5
89A
330
A
100
AcDbEntity
  8
寸法線
100
AcDbLine
 10
638.8237048094183
 20
597.1751806147664
 30
0.0
 11
638.8237048094183
 21
594.1751806147664
 31
0.0
  0
LINE
  5
89B
330
A
100
AcDbEntity
  8
寸法線
100
AcDbLine
 10
638.8237048094183
 20
597.1751806147664
 30
0.0
 11
638.8237048094183
 21
545.1196252711666
 31
0.0
  0
LINE
  5
89C
330
A
100
AcDbEntity
  8
寸法線
100
AcDbLine
 10
638.8237048094183
 20
597.1751806147664
 30
0.0
 11
638.8237048094183
 21
559.2307359583664
 31
0.0
  0
LINE
  5
89D
330
A
100
AcDbEntity
  8
寸法線
100
AcDbLine
 10
638.8237048094183
 20
507.1751806147664
 30
0.0
 11
638.8237048094183
 21
545.1196252711666
 31
0.0
  0
LINE
  5
89E
330
A
100
AcDbEntity
  8
寸法線
100
AcDbLine
 10
638.8237048094183
 20
507.1751806147664
 30
0.0
 11
638.8237048094183
 21
559.2307359583664
 31
0.0
  0
LINE
  5
89F
330
A
100
AcDbEntity
  8
寸法線
100
AcDbLine
 10
617.3237048094184
 20
597.1751806147664
 30
0.0
 11
639.3237048094183
 21
597.1751806147664
 31
0.0
  0
LINE
  5
8A0
330
A
100
AcDbEntity
  8
寸法線
100
AcDbLine
 10
602.3237048094186
 20
507.1751806147664
 30
0.0
 11
639.3237048094183
 21
507.1751806147664
 31
0.0
  0
TEXT
  5
8A1
330
A
100
AcDbEntity
  8
寸法線
100
AcDbText
 10
636.7653715078184
 20
548.6474029429665
 30
0.0
 40
5.9972220421
  1
90
 50
90.0
100
AcDbText
  0
SOLID
  5
8A2
330
A
100
AcDbEntity
  8
寸法線
100
AcDbTrace
 10
638.8237048094183
 20
487.1751806147663
 30
0.0
 11
640.3237048094186
 21
481.1751806147665
 31
0.0
 12
637.3237048094186
 22
481.1751806147665
 32
0.0
 13
638.8237048094183
 23
482.6751806147663
 33
0.0
  0
LINE
  5
8A3
330
A
100
AcDbEntity
  8
寸法線
100
AcDbLine
 10
638.8237048094183
 20
487.1751806147663
 30
0.0
 11
638.8237048094183
 21
484.1751806147663
 31
0.0
  0
SOLID
  5
8A4
330
A
100
AcDbEntity
  8
寸法線
100
AcDbTrace
 10
638.8237048094183
 20
507.1751806147664
 30
0.0
 11
637.3237048094186
 21
513.1751806147664
 31
0.0
 12
640.3237048094186
 22
513.1751806147664
 32
0.0
 13
638.8237048094183
 23
511.6751806147664
 33
0.0
  0
LINE
  5
8A5
330
A
100
AcDbEntity
  8
寸法線
100
AcDbLine
 10
638.8237048094183
 20
507.1751806147664
 30
0.0
 11
638.8237048094183
 21
510.1751806147665
 31
0.0
  0
LINE
  5
8A6
330
A
100
AcDbEntity
  8
寸法線
100
AcDbLine
 10
638.8237048094183
 20
507.1751806147664
 30
0.0
 11
638.8237048094183
 21
490.1196252711665
 31
0.0
  0
LINE
  5
8A7
330
A
100
AcDbEntity
  8
寸法線
100
AcDbLine
 10
638.8237048094183
 20
507.1751806147664
 30
0.0
 11
638.8237048094183
 21
504.2307359583665
 31
0.0
  0
LINE
  5
8A8
330
A
100
AcDbEntity
  8
寸法線
100
AcDbLine
 10
638.8237048094183
 20
487.1751806147663
 30
0.0
 11
638.8237048094183
 21
490.1196252711665
 31
0.0
  0
LINE
  5
8A9
330
A
100
AcDbEntity
  8
寸法線
100
AcDbLine
 10
638.8237048094183
 20
487.1751806147663
 30
0.0
 11
638.8237048094183
 21
504.2307359583665
 31
0.0
  0
LINE
  5
8AA
330
A
100
AcDbEntity
  8
寸法線
100
AcDbLine
 10
602.3237048094186
 20
507.1751806147664
 30
0.0
 11
639.3237048094183
 21
507.1751806147664
 31
0.0
  0
LINE
  5
8AB
330
A
100
AcDbEntity
  8
寸法線
100
AcDbLine
 10
594.8237048094186
 20
487.1751806147663
 30
0.0
 11
639.3237048094183
 21
487.1751806147663
 31
0.0
  0
TEXT
  5
8AC
330
A
100
AcDbEntity
  8
寸法線
100
AcDbText
 10
636.7653715078184
 20
493.6474029429665
 30
0.0
 40
5.9972220421
  1
20
 50
90.0
100
AcDbText
  0
SOLID
  5
8AD
330
A
100
AcDbEntity
  8
寸法線
100
AcDbTrace
 10
582.2458901581184
 20
488.5341052986665
 30
0.0
 11
580.0331596064186
 21
482.7588283784662
 31
0.0
 12
577.5757034735184
 22
484.4795576874665
 32
0.0
 13
579.6647961945186
 23
484.8479210993665
 33
0.0
  0
LINE
  5
8AE
330
A
100
AcDbEntity
  8
寸法線
100
AcDbLine
 10
582.2458901581184
 20
488.5341052986665
 30
0.0
 11
563.3742982693186
 21
461.5826789587663
 31
0.0
  0
TEXT
  5
8AF
330
A
100
AcDbEntity
  8
寸法線
100
AcDbText
 10
561.3514478652186
 20
462.9990940604665
 30
0.0
 40
5.9972220421
  1
R50
 50
55.0
100
AcDbText
  0
SOLID
  5
8B0
330
A
100
AcDbEntity
  8
寸法線
100
AcDbTrace
 10
736.1496813719186
 20
682.1751806147664
 30
0.0
 11
737.6496813719186
 21
676.1751806147664
 31
0.0
 12
734.6496813719186
 22
676.1751806147664
 32
0.0
 13
736.1496813719186
 23
677.6751806147664
 33
0.0
  0
LINE
  5
8B1
330
A
100
AcDbEntity
  8
寸法線
100
AcDbLine
 10
736.1496813719186
 20
682.1751806147664
 30
0.0
 11
736.1496813719186
 21
679.1751806147664
 31
0.0
  0
SOLID
  5
8B2
330
A
100
AcDbEntity
  8
寸法線
100
AcDbTrace
 10
736.1496813719186
 20
527.1751806147664
 30
0.0
 11
734.6496813719186
 21
533.1751806147662
 31
0.0
 12
737.6496813719186
 22
533.1751806147662
 32
0.0
 13
736.1496813719186
 23
531.6751806147664
 33
0.0
  0
LINE
  5
8B3
330
A
100
AcDbEntity
  8
寸法線
100
AcDbLine
 10
736.1496813719186
 20
527.1751806147664
 30
0.0
 11
736.1496813719186
 21
530.1751806147664
 31
0.0
  0
LINE
  5
8B4
330
A
100
AcDbEntity
  8
寸法線
100
AcDbLine
 10
736.1496813719186
 20
527.1751806147664
 30
0.0
 11
736.1496813719186
 21
585.2724034197664
 31
0.0
  0
LINE
  5
8B5
330
A
100
AcDbEntity
  8
寸法線
100
AcDbLine
 10
736.1496813719186
 20
527.1751806147664
 30
0.0
 11
736.1496813719186
 21
624.0779578097664
 31
0.0
  0
LINE
  5
8B6
330
A
100
AcDbEntity
  8
寸法線
100
AcDbLine
 10
736.1496813719186
 20
682.1751806147664
 30
0.0
 11
736.1496813719186
 21
585.2724034197664
 31
0.0
  0
LINE
  5
8B7
330
A
100
AcDbEntity
  8
寸法線
100
AcDbLine
 10
736.1496813719186
 20
682.1751806147664
 30
0.0
 11
736.1496813719186
 21
624.0779578097664
 31
0.0
  0
LINE
  5
8B8
330
A
100
AcDbEntity
  8
寸法線
100
AcDbLine
 10
1150.899681371918
 20
527.1751806147664
 30
0.0
 11
735.6496813719186
 21
527.1751806147664
 31
0.0
  0
LINE
  5
8B9
330
A
100
AcDbEntity
  8
寸法線
100
AcDbLine
 10
755.1496813719186
 20
682.1751806147664
 30
0.0
 11
735.6496813719186
 21
682.1751806147664
 31
0.0
  0
TEXT
  5
8BA
330
A
100
AcDbEntity
  8
寸法線
100
AcDbText
 10
734.0913480703186
 20
588.8001810915665
 30
0.0
 40
5.9972220421
  1
補強(155)
 50
90.0
100
AcDbText
  0
SOLID
  5
8BB
330
A
100
AcDbEntity
  8
寸法線
100
AcDbTrace
 10
1046.823751389418
 20
631.2003642839665
 30
0.0
 11
1045.273908517618
 21
625.2130454288665
 31
0.0
 12
1042.638681158918
 22
626.6467737044664
 32
0.0
 13
1044.673158976018
 23
627.2475232459662
 33
0.0
  0
LINE
  5
8BC
330
A
100
AcDbEntity
  8
寸法線
100
AcDbLine
 10
1046.823751389418
 20
631.2003642839665
 30
0.0
 11
1045.390023113818
 21
628.5651369253663
 31
0.0
  0
SOLID
  5
8BD
330
A
100
AcDbEntity
  8
寸法線
100
AcDbTrace
 10
1031.530649783219
 20
603.0912724582665
 30
0.0
 11
1033.080492655118
 21
609.0785913133665
 31
0.0
 12
1035.715720013718
 22
607.6448630378665
 32
0.0
 13
1033.681242196618
 23
607.0441134962663
 33
0.0
  0
LINE
  5
8BE
330
A
100
AcDbEntity
  8
寸法線
100
AcDbLine
 10
1031.530649783219
 20
603.0912724582665
 30
0.0
 11
1032.964378058818
 21
605.7264998169666
 31
0.0
  0
LINE
  5
8BF
330
A
100
AcDbEntity
  8
寸法線
100
AcDbLine
 10
1031.530649783219
 20
603.0912724582665
 30
0.0
 11
1035.459517903418
 21
610.3126273935663
 31
0.0
  0
LINE
  5
8C0
330
A
100
AcDbEntity
  8
寸法線
100
AcDbLine
 10
1031.530649783219
 20
603.0912724582665
 30
0.0
 11
1042.203350700718
 21
622.7079557082666
 31
0.0
  0
LINE
  5
8C1
330
A
100
AcDbEntity
  8
寸法線
100
AcDbLine
 10
1046.823751389418
 20
631.2003642839665
 30
0.0
 11
1035.459517903418
 21
610.3126273935663
 31
0.0
  0
LINE
  5
8C2
330
A
100
AcDbEntity
  8
寸法線
100
AcDbLine
 10
1046.823751389418
 20
631.2003642839665
 30
0.0
 11
1042.203350700718
 21
622.7079557082666
 31
0.0
  0
LINE
  5
8C3
330
A
100
AcDbEntity
  8
寸法線
100
AcDbLine
 10
1036.778243080018
 20
600.2362539478665
 30
0.0
 11
1031.091445223518
 21
603.3302271708662
 31
0.0
  0
LINE
  5
8C4
330
A
100
AcDbEntity
  8
寸法線
100
AcDbLine
 10
1052.071344686118
 20
628.3453457734665
 30
0.0
 11
1046.384546829618
 21
631.4393189965665
 31
0.0
  0
TEXT
  5
8C5
330
A
100
AcDbEntity
  8
寸法線
100
AcDbText
 10
1035.337417359618
 20
614.3951563572665
 30
0.0
 40
5.9972220421
  1
32
 50
61.451047931
100
AcDbText
  0
SOLID
  5
8C6
330
A
100
AcDbEntity
  8
寸法線
100
AcDbTrace
 10
1086.899681371918
 20
301.5370821570665
 30
0.0
 11
1080.899681371918
 21
300.0370821570665
 31
0.0
 12
1080.899681371918
 22
303.0370821570665
 32
0.0
 13
1082.399681371918
 23
301.5370821570665
 33
0.0
  0
LINE
  5
8C7
330
A
100
AcDbEntity
  8
寸法線
100
AcDbLine
 10
1086.899681371918
 20
301.5370821570665
 30
0.0
 11
1083.899681371918
 21
301.5370821570665
 31
0.0
  0
SOLID
  5
8C8
330
A
100
AcDbEntity
  8
寸法線
100
AcDbTrace
 10
931.8996813719186
 20
301.5370821570665
 30
0.0
 11
937.8996813719187
 21
303.0370821570665
 31
0.0
 12
937.8996813719187
 22
300.0370821570665
 32
0.0
 13
936.3996813719186
 23
301.5370821570665
 33
0.0
  0
LINE
  5
8C9
330
A
100
AcDbEntity
  8
寸法線
100
AcDbLine
 10
931.8996813719186
 20
301.5370821570665
 30
0.0
 11
934.8996813719182
 21
301.5370821570665
 31
0.0
  0
LINE
  5
8CA
330
A
100
AcDbEntity
  8
寸法線
100
AcDbLine
 10
931.8996813719186
 20
301.5370821570665
 30
0.0
 11
1000.580237192318
 21
301.5370821570665
 31
0.0
  0
LINE
  5
8CB
330
A
100
AcDbEntity
  8
寸法線
100
AcDbLine
 10
931.8996813719186
 20
301.5370821570665
 30
0.0
 11
1018.219125551418
 21
301.5370821570665
 31
0.0
  0
LINE
  5
8CC
330
A
100
AcDbEntity
  8
寸法線
100
AcDbLine
 10
1086.899681371918
 20
301.5370821570665
 30
0.0
 11
1000.580237192318
 21
301.5370821570665
 31
0.0
  0
LINE
  5
8CD
330
A
100
AcDbEntity
  8
寸法線
100
AcDbLine
 10
1086.899681371918
 20
301.5370821570665
 30
0.0
 11
1018.219125551418
 21
301.5370821570665
 31
0.0
  0
LINE
  5
8CE
330
A
100
AcDbEntity
  8
寸法線
100
AcDbLine
 10
931.8996813719186
 20
327.9834488439665
 30
0.0
 11
931.8996813719186
 21
301.0370821570665
 31
0.0
  0
LINE
  5
8CF
330
A
100
AcDbEntity
  8
寸法線
100
AcDbLine
 10
1086.899681371918
 20
357.9834488439666
 30
0.0
 11
1086.899681371918
 21
301.0370821570665
 31
0.0
  0
TEXT
  5
8D0
330
A
100
AcDbEntity
  8
寸法線
100
AcDbText
 10
1004.108014864118
 20
303.5954154585665
 30
0.0
 40
5.9972220421
  1
155
100
AcDbText
  0
SOLID
  5
8D1
330
A
100
AcDbEntity
  8
寸法線
100
AcDbTrace
 10
1047.927124019518
 20
594.0922502380665
 30
0.0
 11
1045.143073295718
 21
588.5696546917666
 31
0.0
 12
1042.871740182619
 22
590.5295133319664
 32
0.0
 13
1044.987336059219
 23
590.6852505684662
 33
0.0
  0
LINE
  5
8D2
330
A
100
AcDbEntity
  8
寸法線
100
AcDbLine
 10
1047.927124019518
 20
594.0922502380665
 30
0.0
 11
1015.873789409218
 21
556.9447750111662
 31
0.0
  0
TEXT
  5
8D3
330
A
100
AcDbEntity
  8
寸法線
100
AcDbText
 10
1014.004145819519
 20
558.5580289729665
 30
0.0
 40
5.9972220421
  1
(R1000)
 50
49.21017103609999
100
AcDbText
  0
SOLID
  5
8D4
330
A
100
AcDbEntity
  8
寸法線
100
AcDbTrace
 10
1201.383774361719
 20
326.4834488439665
 30
0.0
 11
1202.883774361718
 21
320.4834488439666
 31
0.0
 12
1199.883774361719
 22
320.4834488439666
 32
0.0
 13
1201.383774361719
 23
321.9834488439665
 33
0.0
  0
LINE
  5
8D5
330
A
100
AcDbEntity
  8
寸法線
100
AcDbLine
 10
1201.383774361719
 20
326.4834488439665
 30
0.0
 11
1201.383774361719
 21
323.4834488439665
 31
0.0
  0
SOLID
  5
8D6
330
A
100
AcDbEntity
  8
寸法線
100
AcDbTrace
 10
1201.383774361719
 20
336.4834488439665
 30
0.0
 11
1199.883774361719
 21
342.4834488439665
 31
0.0
 12
1202.883774361718
 22
342.4834488439665
 32
0.0
 13
1201.383774361719
 23
340.9834488439665
 33
0.0
  0
LINE
  5
8D7
330
A
100
AcDbEntity
  8
寸法線
100
AcDbLine
 10
1201.383774361719
 20
336.4834488439665
 30
0.0
 11
1201.383774361719
 21
339.4834488439665
 31
0.0
  0
LINE
  5
8D8
330
A
100
AcDbEntity
  8
寸法線
100
AcDbLine
 10
1201.383774361719
 20
336.4834488439665
 30
0.0
 11
1201.383774361719
 21
336.4834488439665
 31
0.0
  0
LINE
  5
8D9
330
A
100
AcDbEntity
  8
寸法線
100
AcDbLine
 10
1201.383774361719
 20
336.4834488439665
 30
0.0
 11
1201.383774361719
 21
326.4834488439665
 31
0.0
  0
LINE
  5
8DA
330
A
100
AcDbEntity
  8
寸法線
100
AcDbLine
 10
1201.383774361719
 20
326.4834488439665
 30
0.0
 11
1201.383774361719
 21
336.4834488439665
 31
0.0
  0
LINE
  5
8DB
330
A
100
AcDbEntity
  8
寸法線
100
AcDbLine
 10
1201.383774361719
 20
326.4834488439665
 30
0.0
 11
1201.383774361719
 21
326.4834488439665
 31
0.0
  0
LINE
  5
8DC
330
A
100
AcDbEntity
  8
寸法線
100
AcDbLine
 10
940.3996813719187
 20
336.4834488439665
 30
0.0
 11
1201.883774361719
 21
336.4834488439665
 31
0.0
  0
LINE
  5
8DD
330
A
100
AcDbEntity
  8
寸法線
100
AcDbLine
 10
1159.208168587818
 20
326.4834488439665
 30
0.0
 11
1201.883774361719
 21
326.4834488439665
 31
0.0
  0
TEXT
  5
8DE
330
A
100
AcDbEntity
  8
寸法線
100
AcDbText
 10
1199.325441060119
 20
327.9556711720665
 30
0.0
 40
5.9972220421
  1
10
 50
90.0
100
AcDbText
  0
LINE
  5
8DF
330
A
100
AcDbEntity
  8
寸法線
100
AcDbLine
 10
760.8996813719186
 20
682.1751806147664
 30
0.0
 11
1119.237562509618
 21
682.1751806147664
 31
0.0
  0
LINE
  5
8E0
330
A
100
AcDbEntity
  8
寸法線
100
AcDbLine
 10
1151.899681371918
 20
491.1751806147663
 30
0.0
 11
1151.899681371918
 21
649.5130617525664
 31
0.0
  0
ARC
  5
8E1
330
A
100
AcDbEntity
  8
寸法線
100
AcDbCircle
 10
1151.899681371918
 20
682.1751806147664
 30
0.0
 40
36.6621188622
100
AcDbArc
 50
180.0
 51
206.9279507093
  0
ARC
  5
8E2
330
A
100
AcDbEntity
  8
寸法線
100
AcDbCircle
 10
1151.899681371918
 20
682.1751806147664
 30
0.0
 40
36.6621188622
100
AcDbArc
 50
247.3410113438
 51
270.0
  0
SOLID
  5
8E3
330
A
100
AcDbEntity
  8
寸法線
100
AcDbTrace
 10
1115.237562509618
 20
682.1751806147664
 30
0.0
 11
1116.737562509618
 21
676.1751806147664
 31
0.0
 12
1113.737562509618
 22
676.1751806147664
 32
0.0
 13
1115.237562509618
 23
677.6751806147664
 33
0.0
  0
SOLID
  5
8E4
330
A
100
AcDbEntity
  8
寸法線
100
AcDbTrace
 10
1151.899681371918
 20
645.5130617525663
 30
0.0
 11
1145.899681371918
 21
644.0130617525665
 31
0.0
 12
1145.899681371918
 22
647.0130617525665
 32
0.0
 13
1147.399681371918
 23
645.5130617525663
 33
0.0
  0
ARC
  5
8E5
330
A
100
AcDbEntity
  8
寸法線
100
AcDbCircle
 10
1151.899681371918
 20
682.1751806147664
 30
0.0
 40
36.6621188622
100
AcDbArc
 50
256.2495929505
 51
270.0
  0
ARC
  5
8E6
330
A
100
AcDbEntity
  8
寸法線
100
AcDbCircle
 10
1151.899681371918
 20
682.1751806147664
 30
0.0
 40
36.6621188622
100
AcDbArc
 50
180.0
 51
193.7504070495
  0
TEXT
  5
8E7
330
A
100
AcDbEntity
  8
寸法線
100
AcDbText
 10
1125.240527751518
 20
661.2305297759665
 30
0.0
 40
5.9972220421
  1
90%%d
 50
317.1344810266
100
AcDbText
  0
SOLID
  5
8E8
330
A
100
AcDbEntity
  8
寸法線
100
AcDbTrace
 10
1201.383774961919
 20
366.4834488439665
 30
0.0
 11
1202.883774961919
 21
360.4834488439665
 31
0.0
 12
1199.883774961919
 22
360.4834488439665
 32
0.0
 13
1201.383774961919
 23
361.9834488439665
 33
0.0
  0
LINE
  5
8E9
330
A
100
AcDbEntity
  8
寸法線
100
AcDbLine
 10
1201.383774961919
 20
366.4834488439665
 30
0.0
 11
1201.383774961919
 21
363.4834488439665
 31
0.0
  0
SOLID
  5
8EA
330
A
100
AcDbEntity
  8
寸法線
100
AcDbTrace
 10
1201.383774961919
 20
376.4834488439665
 30
0.0
 11
1199.883774961919
 21
382.4834488439665
 31
0.0
 12
1202.883774961919
 22
382.4834488439665
 32
0.0
 13
1201.383774961919
 23
380.9834488439665
 33
0.0
  0
LINE
  5
8EB
330
A
100
AcDbEntity
  8
寸法線
100
AcDbLine
 10
1201.383774961919
 20
376.4834488439665
 30
0.0
 11
1201.383774961919
 21
379.4834488439665
 31
0.0
  0
LINE
  5
8EC
330
A
100
AcDbEntity
  8
寸法線
100
AcDbLine
 10
1201.383774961919
 20
376.4834488439665
 30
0.0
 11
1201.383774961919
 21
376.4834488439665
 31
0.0
  0
LINE
  5
8ED
330
A
100
AcDbEntity
  8
寸法線
100
AcDbLine
 10
1201.383774961919
 20
376.4834488439665
 30
0.0
 11
1201.383774961919
 21
366.4834488439665
 31
0.0
  0
LINE
  5
8EE
330
A
100
AcDbEntity
  8
寸法線
100
AcDbLine
 10
1201.383774961919
 20
366.4834488439665
 30
0.0
 11
1201.383774961919
 21
376.4834488439665
 31
0.0
  0
LINE
  5
8EF
330
A
100
AcDbEntity
  8
寸法線
100
AcDbLine
 10
1201.383774961919
 20
366.4834488439665
 30
0.0
 11
1201.383774961919
 21
366.4834488439665
 31
0.0
  0
LINE
  5
8F0
330
A
100
AcDbEntity
  8
寸法線
100
AcDbLine
 10
1157.899681371918
 20
376.4834488439665
 30
0.0
 11
1201.883774961919
 21
376.4834488439665
 31
0.0
  0
LINE
  5
8F1
330
A
100
AcDbEntity
  8
寸法線
100
AcDbLine
 10
1095.399681371918
 20
366.4834488439665
 30
0.0
 11
1201.883774961919
 21
366.4834488439665
 31
0.0
  0
TEXT
  5
8F2
330
A
100
AcDbEntity
  8
寸法線
100
AcDbText
 10
1199.325441660318
 20
366.9028065887665
 30
0.0
 40
5.9972220421
  1
10
 50
90.0
100
AcDbText
  0
SOLID
  5
8F3
330
A
100
AcDbEntity
  8
寸法線
100
AcDbTrace
 10
1156.899681371919
 20
301.5370821570665
 30
0.0
 11
1150.899681371918
 21
300.0370821570665
 31
0.0
 12
1150.899681371918
 22
303.0370821570665
 32
0.0
 13
1152.399681371918
 23
301.5370821570665
 33
0.0
  0
LINE
  5
8F4
330
A
100
AcDbEntity
  8
寸法線
100
AcDbLine
 10
1156.899681371919
 20
301.5370821570665
 30
0.0
 11
1153.899681371918
 21
301.5370821570665
 31
0.0
  0
SOLID
  5
8F5
330
A
100
AcDbEntity
  8
寸法線
100
AcDbTrace
 10
1086.899681371918
 20
301.5370821570665
 30
0.0
 11
1092.899681371918
 21
303.0370821570665
 31
0.0
 12
1092.899681371918
 22
300.0370821570665
 32
0.0
 13
1091.399681371918
 23
301.5370821570665
 33
0.0
  0
LINE
  5
8F6
330
A
100
AcDbEntity
  8
寸法線
100
AcDbLine
 10
1086.899681371918
 20
301.5370821570665
 30
0.0
 11
1089.899681371918
 21
301.5370821570665
 31
0.0
  0
LINE
  5
8F7
330
A
100
AcDbEntity
  8
寸法線
100
AcDbLine
 10
1086.899681371918
 20
301.5370821570665
 30
0.0
 11
1114.844126028218
 21
301.5370821570665
 31
0.0
  0
LINE
  5
8F8
330
A
100
AcDbEntity
  8
寸法線
100
AcDbLine
 10
1086.899681371918
 20
301.5370821570665
 30
0.0
 11
1128.955236715518
 21
301.5370821570665
 31
0.0
  0
LINE
  5
8F9
330
A
100
AcDbEntity
  8
寸法線
100
AcDbLine
 10
1156.899681371919
 20
301.5370821570665
 30
0.0
 11
1114.844126028218
 21
301.5370821570665
 31
0.0
  0
LINE
  5
8FA
330
A
100
AcDbEntity
  8
寸法線
100
AcDbLine
 10
1156.899681371919
 20
301.5370821570665
 30
0.0
 11
1128.955236715518
 21
301.5370821570665
 31
0.0
  0
LINE
  5
8FB
330
A
100
AcDbEntity
  8
寸法線
100
AcDbLine
 10
1086.899681371918
 20
357.9834488439666
 30
0.0
 11
1086.899681371918
 21
301.0370821570665
 31
0.0
  0
LINE
  5
8FC
330
A
100
AcDbEntity
  8
寸法線
100
AcDbLine
 10
1156.899681371919
 20
325.4834488439665
 30
0.0
 11
1156.899681371919
 21
301.0370821570665
 31
0.0
  0
TEXT
  5
8FD
330
A
100
AcDbEntity
  8
寸法線
100
AcDbText
 10
1118.371903700019
 20
303.5954154585665
 30
0.0
 40
5.9972220421
  1
70
100
AcDbText
  0
SOLID
  5
8FE
330
A
100
AcDbEntity
  8
寸法線
100
AcDbTrace
 10
638.8237048094183
 20
617.1751806147664
 30
0.0
 11
640.3237048094186
 21
611.1751806147664
 31
0.0
 12
637.3237048094186
 22
611.1751806147664
 32
0.0
 13
638.8237048094183
 23
612.6751806147664
 33
0.0
  0
LINE
  5
8FF
330
A
100
AcDbEntity
  8
寸法線
100
AcDbLine
 10
638.8237048094183
 20
617.1751806147664
 30
0.0
 11
638.8237048094183
 21
614.1751806147664
 31
0.0
  0
SOLID
  5
900
330
A
100
AcDbEntity
  8
寸法線
100
AcDbTrace
 10
638.8237048094183
 20
637.1751806147662
 30
0.0
 11
637.3237048094186
 21
643.1751806147664
 31
0.0
 12
640.3237048094186
 22
643.1751806147664
 32
0.0
 13
638.8237048094183
 23
641.6751806147664
 33
0.0
  0
LINE
  5
901
330
A
100
AcDbEntity
  8
寸法線
100
AcDbLine
 10
638.8237048094183
 20
637.1751806147662
 30
0.0
 11
638.8237048094183
 21
640.1751806147664
 31
0.0
  0
LINE
  5
902
330
A
100
AcDbEntity
  8
寸法線
100
AcDbLine
 10
638.8237048094183
 20
637.1751806147662
 30
0.0
 11
638.8237048094183
 21
620.1196252711666
 31
0.0
  0
LINE
  5
903
330
A
100
AcDbEntity
  8
寸法線
100
AcDbLine
 10
638.8237048094183
 20
637.1751806147662
 30
0.0
 11
638.8237048094183
 21
634.2307359583664
 31
0.0
  0
LINE
  5
904
330
A
100
AcDbEntity
  8
寸法線
100
AcDbLine
 10
638.8237048094183
 20
617.1751806147664
 30
0.0
 11
638.8237048094183
 21
620.1196252711666
 31
0.0
  0
LINE
  5
905
330
A
100
AcDbEntity
  8
寸法線
100
AcDbLine
 10
638.8237048094183
 20
617.1751806147664
 30
0.0
 11
638.8237048094183
 21
634.2307359583664
 31
0.0
  0
LINE
  5
906
330
A
100
AcDbEntity
  8
寸法線
100
AcDbLine
 10
617.3237048094184
 20
637.1751806147662
 30
0.0
 11
639.3237048094183
 21
637.1751806147662
 31
0.0
  0
LINE
  5
907
330
A
100
AcDbEntity
  8
寸法線
100
AcDbLine
 10
587.3237048094186
 20
617.1751806147664
 30
0.0
 11
639.3237048094183
 21
617.1751806147664
 31
0.0
  0
TEXT
  5
908
330
A
100
AcDbEntity
  8
寸法線
100
AcDbText
 10
636.7653715078184
 20
623.6474029429665
 30
0.0
 40
5.9972220421
  1
20
 50
90.0
100
AcDbText
  0
SOLID
  5
909
330
A
100
AcDbEntity
  8
寸法線
100
AcDbTrace
 10
590.0166777035185
 20
511.1446320397663
 30
0.0
 11
584.2414007833184
 21
513.3573625914665
 31
0.0
 12
585.9621300923186
 22
515.8148187242665
 32
0.0
 13
586.3304935042186
 23
513.7257260033663
 33
0.0
  0
LINE
  5
90A
330
A
100
AcDbEntity
  8
寸法線
100
AcDbLine
 10
590.0166777035185
 20
511.1446320397663
 30
0.0
 11
506.3488049911184
 21
569.7295072189665
 31
0.0
  0
TEXT
  5
90B
330
A
100
AcDbEntity
  8
寸法線
100
AcDbText
 10
507.7652200927186
 20
571.7523576231664
 30
0.0
 40
5.9972220421
  1
5-Φ6穴　皿Φ11
 50
325.0
100
AcDbText
  0
SOLID
  5
90C
330
A
100
AcDbEntity
  8
寸法線
100
AcDbTrace
 10
608.8237048094184
 20
718.3806914069665
 30
0.0
 11
602.8237048094186
 21
716.8806914069665
 31
0.0
 12
602.8237048094186
 22
719.8806914069665
 32
0.0
 13
604.3237048094185
 23
718.3806914069665
 33
0.0
  0
LINE
  5
90D
330
A
100
AcDbEntity
  8
寸法線
100
AcDbLine
 10
608.8237048094184
 20
718.3806914069665
 30
0.0
 11
605.8237048094183
 21
718.3806914069665
 31
0.0
  0
SOLID
  5
90E
330
A
100
AcDbEntity
  8
寸法線
100
AcDbTrace
 10
578.8237048094186
 20
718.3806914069665
 30
0.0
 11
584.8237048094183
 21
719.8806914069665
 31
0.0
 12
584.8237048094183
 22
716.8806914069665
 32
0.0
 13
583.3237048094185
 23
718.3806914069665
 33
0.0
  0
LINE
  5
90F
330
A
100
AcDbEntity
  8
寸法線
100
AcDbLine
 10
578.8237048094186
 20
718.3806914069665
 30
0.0
 11
581.8237048094186
 21
718.3806914069665
 31
0.0
  0
LINE
  5
910
330
A
100
AcDbEntity
  8
寸法線
100
AcDbLine
 10
578.8237048094186
 20
718.3806914069665
 30
0.0
 11
586.7681494657185
 21
718.3806914069665
 31
0.0
  0
LINE
  5
911
330
A
100
AcDbEntity
  8
寸法線
100
AcDbLine
 10
578.8237048094186
 20
718.3806914069665
 30
0.0
 11
600.8792601530185
 21
718.3806914069665
 31
0.0
  0
LINE
  5
912
330
A
100
AcDbEntity
  8
寸法線
100
AcDbLine
 10
608.8237048094184
 20
718.3806914069665
 30
0.0
 11
586.7681494657185
 21
718.3806914069665
 31
0.0
  0
LINE
  5
913
330
A
100
AcDbEntity
  8
寸法線
100
AcDbLine
 10
608.8237048094184
 20
718.3806914069665
 30
0.0
 11
600.8792601530185
 21
718.3806914069665
 31
0.0
  0
LINE
  5
914
330
A
100
AcDbEntity
  8
寸法線
100
AcDbLine
 10
578.8237048094186
 20
665.6751806147664
 30
0.0
 11
578.8237048094186
 21
718.8806914069665
 31
0.0
  0
LINE
  5
915
330
A
100
AcDbEntity
  8
寸法線
100
AcDbLine
 10
608.8237048094184
 20
645.6751806147664
 30
0.0
 11
608.8237048094184
 21
718.8806914069665
 31
0.0
  0
TEXT
  5
916
330
A
100
AcDbEntity
  8
寸法線
100
AcDbText
 10
590.2959271375188
 20
720.4390247084661
 30
0.0
 40
5.9972220421
  1
30
100
AcDbText
  0
SOLID
  5
917
330
A
100
AcDbEntity
  8
寸法線
100
AcDbTrace
 10
1156.899681371919
 20
718.0308133967663
 30
0.0
 11
1150.899681371918
 21
716.5308133967663
 31
0.0
 12
1150.899681371918
 22
719.5308133967666
 32
0.0
 13
1152.399681371918
 23
718.0308133967663
 33
0.0
  0
LINE
  5
918
330
A
100
AcDbEntity
  8
寸法線
100
AcDbLine
 10
1156.899681371919
 20
718.0308133967663
 30
0.0
 11
1153.899681371918
 21
718.0308133967663
 31
0.0
  0
SOLID
  5
919
330
A
100
AcDbEntity
  8
寸法線
100
AcDbTrace
 10
756.8996813719186
 20
718.0308133967663
 30
0.0
 11
762.8996813719186
 21
719.5308133967666
 31
0.0
 12
762.8996813719186
 22
716.5308133967663
 32
0.0
 13
761.3996813719186
 23
718.0308133967663
 33
0.0
  0
LINE
  5
91A
330
A
100
AcDbEntity
  8
寸法線
100
AcDbLine
 10
756.8996813719186
 20
718.0308133967663
 30
0.0
 11
759.8996813719186
 21
718.0308133967663
 31
0.0
  0
LINE
  5
91B
330
A
100
AcDbEntity
  8
寸法線
100
AcDbLine
 10
756.8996813719186
 20
718.0308133967663
 30
0.0
 11
930.4413488332183
 21
718.0308133967663
 31
0.0
  0
LINE
  5
91C
330
A
100
AcDbEntity
  8
寸法線
100
AcDbLine
 10
756.8996813719186
 20
718.0308133967663
 30
0.0
 11
983.3580139105183
 21
718.0308133967663
 31
0.0
  0
LINE
  5
91D
330
A
100
AcDbEntity
  8
寸法線
100
AcDbLine
 10
1156.899681371919
 20
718.0308133967663
 30
0.0
 11
930.4413488332183
 21
718.0308133967663
 31
0.0
  0
LINE
  5
91E
330
A
100
AcDbEntity
  8
寸法線
100
AcDbLine
 10
1156.899681371919
 20
718.0308133967663
 30
0.0
 11
983.3580139105183
 21
718.0308133967663
 31
0.0
  0
LINE
  5
91F
330
A
100
AcDbEntity
  8
寸法線
100
AcDbLine
 10
756.8996813719186
 20
688.1751806147665
 30
0.0
 11
756.8996813719186
 21
718.5308133967668
 31
0.0
  0
LINE
  5
920
330
A
100
AcDbEntity
  8
寸法線
100
AcDbLine
 10
1156.899681371919
 20
683.6751806147664
 30
0.0
 11
1156.899681371919
 21
718.5308133967668
 31
0.0
  0
TEXT
  5
921
330
A
100
AcDbEntity
  8
寸法線
100
AcDbText
 10
933.9691265051184
 20
720.0891466982664
 30
0.0
 40
5.9972220421
  1
400（天板側）
100
AcDbText
  0
SOLID
  5
922
330
A
100
AcDbEntity
  8
寸法線
100
AcDbTrace
 10
1191.867714803218
 20
487.1751806147663
 30
0.0
 11
1190.367714803218
 21
493.1751806147665
 31
0.0
 12
1193.367714803218
 22
493.1751806147665
 32
0.0
 13
1191.867714803218
 23
491.6751806147663
 33
0.0
  0
LINE
  5
923
330
A
100
AcDbEntity
  8
寸法線
100
AcDbLine
 10
1191.867714803218
 20
487.1751806147663
 30
0.0
 11
1191.867714803218
 21
490.1751806147665
 31
0.0
  0
SOLID
  5
924
330
A
100
AcDbEntity
  8
寸法線
100
AcDbTrace
 10
1191.867714803218
 20
687.1751806147662
 30
0.0
 11
1193.367714803218
 21
681.1751806147664
 31
0.0
 12
1190.367714803218
 22
681.1751806147664
 32
0.0
 13
1191.867714803218
 23
682.6751806147662
 33
0.0
  0
LINE
  5
925
330
A
100
AcDbEntity
  8
寸法線
100
AcDbLine
 10
1191.867714803218
 20
687.1751806147662
 30
0.0
 11
1191.867714803218
 21
684.1751806147664
 31
0.0
  0
LINE
  5
926
330
A
100
AcDbEntity
  8
寸法線
100
AcDbLine
 10
1191.867714803218
 20
687.1751806147662
 30
0.0
 11
1191.867714803218
 21
564.2446257479665
 31
0.0
  0
LINE
  5
927
330
A
100
AcDbEntity
  8
寸法線
100
AcDbLine
 10
1191.867714803218
 20
687.1751806147662
 30
0.0
 11
1191.867714803218
 21
610.1057354815665
 31
0.0
  0
LINE
  5
928
330
A
100
AcDbEntity
  8
寸法線
100
AcDbLine
 10
1191.867714803218
 20
487.1751806147663
 30
0.0
 11
1191.867714803218
 21
564.2446257479665
 31
0.0
  0
LINE
  5
929
330
A
100
AcDbEntity
  8
寸法線
100
AcDbLine
 10
1191.867714803218
 20
487.1751806147663
 30
0.0
 11
1191.867714803218
 21
610.1057354815665
 31
0.0
  0
LINE
  5
92A
330
A
100
AcDbEntity
  8
寸法線
100
AcDbLine
 10
1153.399681371918
 20
687.1751806147662
 30
0.0
 11
1192.367714803219
 21
687.1751806147662
 31
0.0
  0
LINE
  5
92B
330
A
100
AcDbEntity
  8
寸法線
100
AcDbLine
 10
1158.328286092318
 20
487.1751806147663
 30
0.0
 11
1192.367714803219
 21
487.1751806147663
 31
0.0
  0
TEXT
  5
92C
330
A
100
AcDbEntity
  8
寸法線
100
AcDbText
 10
1189.809381501718
 20
567.7724034197664
 30
0.0
 40
5.9972220421
  1
200（壁側）
 50
90.0
100
AcDbText
  0
SOLID
  5
92D
330
A
100
AcDbEntity
  8
寸法線
100
AcDbTrace
 10
578.8237048094186
 20
718.3806914069665
 30
0.0
 11
584.8237048094183
 21
719.8806914069665
 31
0.0
 12
584.8237048094183
 22
716.8806914069665
 32
0.0
 13
583.3237048094185
 23
718.3806914069665
 33
0.0
  0
LINE
  5
92E
330
A
100
AcDbEntity
  8
寸法線
100
AcDbLine
 10
578.8237048094186
 20
718.3806914069665
 30
0.0
 11
581.8237048094186
 21
718.3806914069665
 31
0.0
  0
SOLID
  5
92F
330
A
100
AcDbEntity
  8
寸法線
100
AcDbTrace
 10
568.8237048094186
 20
718.3806914069665
 30
0.0
 11
562.8237048094185
 21
716.8806914069665
 31
0.0
 12
562.8237048094185
 22
719.8806914069665
 32
0.0
 13
564.3237048094183
 23
718.3806914069665
 33
0.0
  0
LINE
  5
930
330
A
100
AcDbEntity
  8
寸法線
100
AcDbLine
 10
568.8237048094186
 20
718.3806914069665
 30
0.0
 11
565.8237048094186
 21
718.3806914069665
 31
0.0
  0
LINE
  5
931
330
A
100
AcDbEntity
  8
寸法線
100
AcDbLine
 10
568.8237048094186
 20
718.3806914069665
 30
0.0
 11
568.8237048094186
 21
718.3806914069665
 31
0.0
  0
LINE
  5
932
330
A
100
AcDbEntity
  8
寸法線
100
AcDbLine
 10
568.8237048094186
 20
718.3806914069665
 30
0.0
 11
578.8237048094186
 21
718.3806914069665
 31
0.0
  0
LINE
  5
933
330
A
100
AcDbEntity
  8
寸法線
100
AcDbLine
 10
578.8237048094186
 20
718.3806914069665
 30
0.0
 11
568.8237048094186
 21
718.3806914069665
 31
0.0
  0
LINE
  5
934
330
A
100
AcDbEntity
  8
寸法線
100
AcDbLine
 10
578.8237048094186
 20
718.3806914069665
 30
0.0
 11
578.8237048094186
 21
718.3806914069665
 31
0.0
  0
LINE
  5
935
330
A
100
AcDbEntity
  8
寸法線
100
AcDbLine
 10
568.8237048094186
 20
688.1751806147665
 30
0.0
 11
568.8237048094186
 21
718.8806914069665
 31
0.0
  0
LINE
  5
936
330
A
100
AcDbEntity
  8
寸法線
100
AcDbLine
 10
578.8237048094186
 20
665.6751806147664
 30
0.0
 11
578.8237048094186
 21
718.8806914069665
 31
0.0
  0
TEXT
  5
937
330
A
100
AcDbEntity
  8
寸法線
100
AcDbText
 10
570.2959271375187
 20
720.4390247084661
 30
0.0
 40
5.9972220421
  1
10
100
AcDbText
  0
SOLID
  5
938
330
A
100
AcDbEntity
  8
寸法線
100
AcDbTrace
 10
638.8237048094183
 20
657.1751806147664
 30
0.0
 11
637.3237048094186
 21
663.1751806147664
 31
0.0
 12
640.3237048094186
 22
663.1751806147664
 32
0.0
 13
638.8237048094183
 23
661.6751806147664
 33
0.0
  0
LINE
  5
939
330
A
100
AcDbEntity
  8
寸法線
100
AcDbLine
 10
638.8237048094183
 20
657.1751806147664
 30
0.0
 11
638.8237048094183
 21
660.1751806147664
 31
0.0
  0
SOLID
  5
93A
330
A
100
AcDbEntity
  8
寸法線
100
AcDbTrace
 10
638.8237048094183
 20
687.1751806147662
 30
0.0
 11
640.3237048094186
 21
681.1751806147664
 31
0.0
 12
637.3237048094186
 22
681.1751806147664
 32
0.0
 13
638.8237048094183
 23
682.6751806147662
 33
0.0
  0
LINE
  5
93B
330
A
100
AcDbEntity
  8
寸法線
100
AcDbLine
 10
638.8237048094183
 20
687.1751806147662
 30
0.0
 11
638.8237048094183
 21
684.1751806147664
 31
0.0
  0
LINE
  5
93C
330
A
100
AcDbEntity
  8
寸法線
100
AcDbLine
 10
638.8237048094183
 20
687.1751806147662
 30
0.0
 11
638.8237048094183
 21
665.1196252711665
 31
0.0
  0
LINE
  5
93D
330
A
100
AcDbEntity
  8
寸法線
100
AcDbLine
 10
638.8237048094183
 20
687.1751806147662
 30
0.0
 11
638.8237048094183
 21
679.2307359583665
 31
0.0
  0
LINE
  5
93E
330
A
100
AcDbEntity
  8
寸法線
100
AcDbLine
 10
638.8237048094183
 20
657.1751806147664
 30
0.0
 11
638.8237048094183
 21
665.1196252711665
 31
0.0
  0
LINE
  5
93F
330
A
100
AcDbEntity
  8
寸法線
100
AcDbLine
 10
638.8237048094183
 20
657.1751806147664
 30
0.0
 11
638.8237048094183
 21
679.2307359583665
 31
0.0
  0
LINE
  5
940
330
A
100
AcDbEntity
  8
寸法線
100
AcDbLine
 10
619.8237048094186
 20
687.1751806147662
 30
0.0
 11
639.3237048094183
 21
687.1751806147662
 31
0.0
  0
LINE
  5
941
330
A
100
AcDbEntity
  8
寸法線
100
AcDbLine
 10
587.3237048094186
 20
657.1751806147664
 30
0.0
 11
639.3237048094183
 21
657.1751806147664
 31
0.0
  0
TEXT
  5
942
330
A
100
AcDbEntity
  8
寸法線
100
AcDbText
 10
636.7653715078184
 20
668.6474029429665
 30
0.0
 40
5.9972220421
  1
30
 50
90.0
100
AcDbText
  0
SOLID
  5
943
330
A
100
AcDbEntity
  8
寸法線
100
AcDbTrace
 10
758.6033900574181
 20
364.4244010990665
 30
0.0
 11
752.6572376347187
 21
366.1253629933665
 31
0.0
 12
754.1572376347187
 22
368.7234392047665
 32
0.0
 13
754.7062757404185
 23
366.6744010990665
 33
0.0
  0
LINE
  5
944
330
A
100
AcDbEntity
  8
寸法線
100
AcDbLine
 10
758.6033900574181
 20
364.4244010990665
 30
0.0
 11
726.8309835344187
 21
382.7682085579665
 31
0.0
  0
TEXT
  5
945
330
A
100
AcDbEntity
  8
寸法線
100
AcDbText
 10
728.0657057195184
 20
384.9068101157665
 30
0.0
 40
5.9972220421
  1
R50
 50
330.0
100
AcDbText
  0
SOLID
  5
946
330
A
100
AcDbEntity
  8
寸法線
100
AcDbTrace
 10
1183.348802261718
 20
348.9834488439665
 30
0.0
 11
1184.848802261718
 21
342.9834488439665
 31
0.0
 12
1181.848802261718
 22
342.9834488439665
 32
0.0
 13
1183.348802261718
 23
344.4834488439665
 33
0.0
  0
LINE
  5
947
330
A
100
AcDbEntity
  8
寸法線
100
AcDbLine
 10
1183.348802261718
 20
348.9834488439665
 30
0.0
 11
1183.348802261718
 21
345.9834488439665
 31
0.0
  0
SOLID
  5
948
330
A
100
AcDbEntity
  8
寸法線
100
AcDbTrace
 10
1183.348802261718
 20
353.9834488439665
 30
0.0
 11
1181.848802261718
 21
359.9834488439665
 31
0.0
 12
1184.848802261718
 22
359.9834488439665
 32
0.0
 13
1183.348802261718
 23
358.4834488439665
 33
0.0
  0
LINE
  5
949
330
A
100
AcDbEntity
  8
寸法線
100
AcDbLine
 10
1183.348802261718
 20
353.9834488439665
 30
0.0
 11
1183.348802261718
 21
356.9834488439665
 31
0.0
  0
LINE
  5
94A
330
A
100
AcDbEntity
  8
寸法線
100
AcDbLine
 10
1183.348802261718
 20
353.9834488439665
 30
0.0
 11
1183.348802261718
 21
353.9834488439665
 31
0.0
  0
LINE
  5
94B
330
A
100
AcDbEntity
  8
寸法線
100
AcDbLine
 10
1183.348802261718
 20
353.9834488439665
 30
0.0
 11
1183.348802261718
 21
348.9834488439665
 31
0.0
  0
LINE
  5
94C
330
A
100
AcDbEntity
  8
寸法線
100
AcDbLine
 10
1183.348802261718
 20
348.9834488439665
 30
0.0
 11
1183.348802261718
 21
353.9834488439665
 31
0.0
  0
LINE
  5
94D
330
A
100
AcDbEntity
  8
寸法線
100
AcDbLine
 10
1183.348802261718
 20
348.9834488439665
 30
0.0
 11
1183.348802261718
 21
348.9834488439665
 31
0.0
  0
LINE
  5
94E
330
A
100
AcDbEntity
  8
寸法線
100
AcDbLine
 10
1152.899681371919
 20
353.9834488439665
 30
0.0
 11
1183.848802261718
 21
353.9834488439665
 31
0.0
  0
LINE
  5
94F
330
A
100
AcDbEntity
  8
寸法線
100
AcDbLine
 10
1152.899681371919
 20
348.9834488439665
 30
0.0
 11
1183.848802261718
 21
348.9834488439665
 31
0.0
  0
TEXT
  5
950
330
A
100
AcDbEntity
  8
寸法線
100
AcDbText
 10
1181.290468960218
 20
349.7195600079666
 30
0.0
 40
5.9972220421
  1
5
 50
90.0
100
AcDbText
  0
SOLID
  5
951
330
A
100
AcDbEntity
  8
寸法線
100
AcDbTrace
 10
1214.216066628518
 20
326.4834488439665
 30
0.0
 11
1212.716066628518
 21
332.4834488439665
 31
0.0
 12
1215.716066628518
 22
332.4834488439665
 32
0.0
 13
1214.216066628518
 23
330.9834488439665
 33
0.0
  0
LINE
  5
952
330
A
100
AcDbEntity
  8
寸法線
100
AcDbLine
 10
1214.216066628518
 20
326.4834488439665
 30
0.0
 11
1214.216066628518
 21
329.4834488439665
 31
0.0
  0
SOLID
  5
953
330
A
100
AcDbEntity
  8
寸法線
100
AcDbTrace
 10
1214.216066628518
 20
376.4834488439665
 30
0.0
 11
1215.716066628518
 21
370.4834488439666
 31
0.0
 12
1212.716066628518
 22
370.4834488439666
 32
0.0
 13
1214.216066628518
 23
371.9834488439665
 33
0.0
  0
LINE
  5
954
330
A
100
AcDbEntity
  8
寸法線
100
AcDbLine
 10
1214.216066628518
 20
376.4834488439665
 30
0.0
 11
1214.216066628518
 21
373.4834488439665
 31
0.0
  0
LINE
  5
955
330
A
100
AcDbEntity
  8
寸法線
100
AcDbLine
 10
1214.216066628518
 20
376.4834488439665
 30
0.0
 11
1214.216066628518
 21
344.4278935002665
 31
0.0
  0
LINE
  5
956
330
A
100
AcDbEntity
  8
寸法線
100
AcDbLine
 10
1214.216066628518
 20
376.4834488439665
 30
0.0
 11
1214.216066628518
 21
358.5390041875665
 31
0.0
  0
LINE
  5
957
330
A
100
AcDbEntity
  8
寸法線
100
AcDbLine
 10
1214.216066628518
 20
326.4834488439665
 30
0.0
 11
1214.216066628518
 21
344.4278935002665
 31
0.0
  0
LINE
  5
958
330
A
100
AcDbEntity
  8
寸法線
100
AcDbLine
 10
1214.216066628518
 20
326.4834488439665
 30
0.0
 11
1214.216066628518
 21
358.5390041875665
 31
0.0
  0
LINE
  5
959
330
A
100
AcDbEntity
  8
寸法線
100
AcDbLine
 10
1157.899681371918
 20
376.4834488439665
 30
0.0
 11
1214.716066628519
 21
376.4834488439665
 31
0.0
  0
LINE
  5
95A
330
A
100
AcDbEntity
  8
寸法線
100
AcDbLine
 10
1157.899681371918
 20
326.4834488439665
 30
0.0
 11
1214.716066628519
 21
326.4834488439665
 31
0.0
  0
TEXT
  5
95B
330
A
100
AcDbEntity
  8
寸法線
100
AcDbText
 10
1212.157733327019
 20
347.9556711720665
 30
0.0
 40
5.9972220421
  1
50
 50
90.0
100
AcDbText
  0
SOLID
  5
95C
330
A
100
AcDbEntity
  8
寸法線
100
AcDbTrace
 10
931.8996813719186
 20
301.5370821570665
 30
0.0
 11
925.8996813719186
 21
300.0370821570665
 31
0.0
 12
925.8996813719186
 22
303.0370821570665
 32
0.0
 13
927.3996813719186
 23
301.5370821570665
 33
0.0
  0
LINE
  5
95D
330
A
100
AcDbEntity
  8
寸法線
100
AcDbLine
 10
931.8996813719186
 20
301.5370821570665
 30
0.0
 11
928.8996813719187
 21
301.5370821570665
 31
0.0
  0
SOLID
  5
95E
330
A
100
AcDbEntity
  8
寸法線
100
AcDbTrace
 10
776.8996813719186
 20
301.5370821570665
 30
0.0
 11
782.8996813719186
 21
303.0370821570665
 31
0.0
 12
782.8996813719186
 22
300.0370821570665
 32
0.0
 13
781.3996813719186
 23
301.5370821570665
 33
0.0
  0
LINE
  5
95F
330
A
100
AcDbEntity
  8
寸法線
100
AcDbLine
 10
776.8996813719186
 20
301.5370821570665
 30
0.0
 11
779.8996813719186
 21
301.5370821570665
 31
0.0
  0
LINE
  5
960
330
A
100
AcDbEntity
  8
寸法線
100
AcDbLine
 10
776.8996813719186
 20
301.5370821570665
 30
0.0
 11
845.5802371923187
 21
301.5370821570665
 31
0.0
  0
LINE
  5
961
330
A
100
AcDbEntity
  8
寸法線
100
AcDbLine
 10
776.8996813719186
 20
301.5370821570665
 30
0.0
 11
863.2191255514182
 21
301.5370821570665
 31
0.0
  0
LINE
  5
962
330
A
100
AcDbEntity
  8
寸法線
100
AcDbLine
 10
931.8996813719186
 20
301.5370821570665
 30
0.0
 11
845.5802371923187
 21
301.5370821570665
 31
0.0
  0
LINE
  5
963
330
A
100
AcDbEntity
  8
寸法線
100
AcDbLine
 10
931.8996813719186
 20
301.5370821570665
 30
0.0
 11
863.2191255514182
 21
301.5370821570665
 31
0.0
  0
LINE
  5
964
330
A
100
AcDbEntity
  8
寸法線
100
AcDbLine
 10
776.8996813719186
 20
342.9834488439665
 30
0.0
 11
776.8996813719186
 21
301.0370821570665
 31
0.0
  0
LINE
  5
965
330
A
100
AcDbEntity
  8
寸法線
100
AcDbLine
 10
931.8996813719186
 20
327.9834488439665
 30
0.0
 11
931.8996813719186
 21
301.0370821570665
 31
0.0
  0
TEXT
  5
966
330
A
100
AcDbEntity
  8
寸法線
100
AcDbText
 10
849.1080148641183
 20
303.5954154585665
 30
0.0
 40
5.9972220421
  1
155
100
AcDbText
  0
ARC
  5
967
330
A
100
AcDbEntity
  8
Layer1
 62
     5
370
    18
100
AcDbCircle
 10
857.3685278145186
 20
679.1751806147664
 30
0.0
 40
3.0
100
AcDbArc
 50
180.0000088888
 51
252.7386287741
  0
LINE
  5
968
330
A
100
AcDbEntity
  8
Layer1
 62
     5
370
    18
100
AcDbLine
 10
854.3685278145185
 20
679.1751801493663
 30
0.0
 11
854.3685278145185
 21
682.1751806147664
 31
0.0
  0
LINE
  5
969
330
A
100
AcDbEntity
  8
Layer1
 62
     5
370
    18
100
AcDbLine
 10
854.3685278145185
 20
682.1751806147664
 30
0.0
 11
936.3604011798186
 21
682.1751806147664
 31
0.0
  0
LINE
  5
96A
330
A
100
AcDbEntity
  8
Layer1
 62
     5
370
    18
100
AcDbLine
 10
1151.899681371918
 20
566.5589449749663
 30
0.0
 11
1151.899681371918
 21
527.1751806147664
 31
0.0
  0
ARC
  5
96B
330
A
100
AcDbEntity
  8
Layer1
 62
     5
370
    18
100
AcDbCircle
 10
559.7472270072183
 20
-278.6507750295334
 30
0.0
 40
1032.0
100
AcDbArc
 50
54.9849812684
 51
68.5964022947
  0
ARC
  5
96C
330
A
100
AcDbEntity
  8
Layer1
 62
     5
370
    18
100
AcDbCircle
 10
559.7472270072183
 20
-278.6507750295334
 30
0.0
 40
1000.0
100
AcDbArc
 50
53.6900978674
 51
72.7386287741
  0
LINE
  5
96D
330
A
100
AcDbEntity
  8
ﾚｲﾔｰ1
370
     5
100
AcDbLine
 10
792.2461927218185
 20
403.0577326980663
 30
0.0
 11
852.2461927218184
 21
403.0577326980663
 31
0.0
  0
LINE
  5
96E
330
A
100
AcDbEntity
  8
ﾚｲﾔｰ1
370
     5
100
AcDbLine
 10
806.2461927218185
 20
389.0577326980666
 30
0.0
 11
866.2461927218185
 21
389.0577326980666
 31
0.0
  0
LINE
  5
96F
330
A
100
AcDbEntity
  8
ﾚｲﾔｰ1
370
     5
100
AcDbLine
 10
804.2461927218184
 20
391.0577326980666
 30
0.0
 11
864.2461927218185
 21
391.0577326980666
 31
0.0
  0
LINE
  5
970
330
A
100
AcDbEntity
  8
ﾚｲﾔｰ1
370
     5
100
AcDbLine
 10
802.2461927218184
 20
393.0577326980666
 30
0.0
 11
862.2461927218184
 21
393.0577326980666
 31
0.0
  0
LINE
  5
971
330
A
100
AcDbEntity
  8
ﾚｲﾔｰ1
370
     5
100
AcDbLine
 10
800.2461927218185
 20
395.0577326980666
 30
0.0
 11
860.2461927218184
 21
395.0577326980666
 31
0.0
  0
LINE
  5
972
330
A
100
AcDbEntity
  8
ﾚｲﾔｰ1
370
     5
100
AcDbLine
 10
798.2461927218182
 20
397.0577326980666
 30
0.0
 11
858.2461927218185
 21
397.0577326980666
 31
0.0
  0
LINE
  5
973
330
A
100
AcDbEntity
  8
ﾚｲﾔｰ1
370
     5
100
AcDbLine
 10
796.2461927218185
 20
399.0577326980666
 30
0.0
 11
856.2461927218185
 21
399.0577326980666
 31
0.0
  0
LINE
  5
974
330
A
100
AcDbEntity
  8
ﾚｲﾔｰ1
370
     5
100
AcDbLine
 10
794.2461927218182
 20
401.0577326980665
 30
0.0
 11
854.2461927218184
 21
401.0577326980665
 31
0.0
  0
MTEXT
  5
975
330
A
100
AcDbEntity
  8
ﾚｲﾔｰ1
370
     5
100
AcDbMText
 10
816.1691520167186
 20
412.0120197382665
 30
0.0
 40
5.9972220421
 41
18.4230131025
 71
     1
 72
     1
  1
\W0.8;\fＭＳ ゴシック;\W1.0;ＨＬ
 73
     1
 44
1.0
1001
ACAD
1000
MTEXTBEGIN
1070
    73
1070
     1
1070
    44
1040
1.0
1070
    74
1070
     0
1000
MTEXTEND
  0
CIRCLE
  5
976
330
A
100
AcDbEntity
  8
Layer1
 62
     5
370
    18
100
AcDbCircle
 10
1086.899681371918
 20
366.4834488439665
 30
0.0
 40
3.0
  0
CIRCLE
  5
977
330
A
100
AcDbEntity
  8
Layer1
 62
     5
370
    18
100
AcDbCircle
 10
1086.899681371918
 20
366.4834488439665
 30
0.0
 40
5.5
  0
CIRCLE
  5
978
330
A
100
AcDbEntity
  8
Layer1
 62
     5
370
    18
100
AcDbCircle
 10
931.8996813719186
 20
336.4834488439665
 30
0.0
 40
5.5
  0
CIRCLE
  5
979
330
A
100
AcDbEntity
  8
Layer1
 62
     5
370
    18
100
AcDbCircle
 10
931.8996813719186
 20
336.4834488439665
 30
0.0
 40
3.0
  0
CIRCLE
  5
97A
330
A
100
AcDbEntity
  8
Layer1
 62
     5
370
    18
100
AcDbCircle
 10
776.8996813719186
 20
351.4834488439665
 30
0.0
 40
5.5
  0
CIRCLE
  5
97B
330
A
100
AcDbEntity
  8
Layer1
 62
     5
370
    18
100
AcDbCircle
 10
776.8996813719186
 20
351.4834488439665
 30
0.0
 40
3.0
  0
LINE
  5
97C
330
A
100
AcDbEntity
  8
Layer1
  6
DASHDOT
 62
     3
370
    18
100
AcDbLine
 10
769.3996813719186
 20
351.4834488439665
 30
0.0
 11
784.3996813719186
 21
351.4834488439665
 31
0.0
  0
LINE
  5
97D
330
A
100
AcDbEntity
  8
Layer1
  6
DASHDOT
 62
     3
370
    18
100
AcDbLine
 10
776.8996813719186
 20
358.9834488439665
 30
0.0
 11
776.8996813719186
 21
343.9834488439665
 31
0.0
  0
LINE
  5
97E
330
A
100
AcDbEntity
  8
Layer1
  6
DASHDOT
 62
     3
370
    18
100
AcDbLine
 10
924.3996813719187
 20
336.4834488439665
 30
0.0
 11
939.3996813719182
 21
336.4834488439665
 31
0.0
  0
LINE
  5
97F
330
A
100
AcDbEntity
  8
Layer1
  6
DASHDOT
 62
     3
370
    18
100
AcDbLine
 10
931.8996813719186
 20
343.9834488439665
 30
0.0
 11
931.8996813719186
 21
328.9834488439665
 31
0.0
  0
LINE
  5
980
330
A
100
AcDbEntity
  8
Layer1
  6
DASHDOT
 62
     3
370
    18
100
AcDbLine
 10
1079.399681371918
 20
366.4834488439665
 30
0.0
 11
1094.399681371919
 21
366.4834488439665
 31
0.0
  0
LINE
  5
981
330
A
100
AcDbEntity
  8
Layer1
  6
DASHDOT
 62
     3
370
    18
100
AcDbLine
 10
1086.899681371918
 20
373.9834488439665
 30
0.0
 11
1086.899681371918
 21
358.9834488439665
 31
0.0
  0
LINE
  5
982
330
A
100
AcDbEntity
  8
Layer1
  6
DASHDOT
 62
     3
370
    18
100
AcDbLine
 10
1161.899681371918
 20
351.4834488439665
 30
0.0
 11
751.8996813719186
 21
351.4834488439665
 31
0.0
  0
LINE
  5
983
330
A
100
AcDbEntity
  8
Layer1
  6
DASHDOT
 62
     3
370
    18
100
AcDbLine
 10
571.3237048094184
 20
657.1751806147664
 30
0.0
 11
586.3237048094186
 21
657.1751806147664
 31
0.0
  0
LINE
  5
984
330
A
100
AcDbEntity
  8
Layer1
  6
DASHDOT
 62
     3
370
    18
100
AcDbLine
 10
578.8237048094186
 20
664.6751806147664
 30
0.0
 11
578.8237048094186
 21
649.6751806147662
 31
0.0
  0
LINE
  5
985
330
A
100
AcDbEntity
  8
Layer1
  6
DASHDOT
 62
     3
370
    18
100
AcDbLine
 10
601.3237048094183
 20
637.1751806147662
 30
0.0
 11
616.3237048094186
 21
637.1751806147662
 31
0.0
  0
LINE
  5
986
330
A
100
AcDbEntity
  8
Layer1
  6
DASHDOT
 62
     3
370
    18
100
AcDbLine
 10
608.8237048094184
 20
644.6751806147664
 30
0.0
 11
608.8237048094184
 21
629.6751806147664
 31
0.0
  0
LINE
  5
987
330
A
100
AcDbEntity
  8
Layer1
  6
DASHDOT
 62
     3
370
    18
100
AcDbLine
 10
571.3237048094184
 20
617.1751806147664
 30
0.0
 11
586.3237048094186
 21
617.1751806147664
 31
0.0
  0
LINE
  5
988
330
A
100
AcDbEntity
  8
Layer1
 62
     5
370
    18
100
AcDbLine
 10
756.8996813719186
 20
687.1751806147662
 30
0.0
 11
1146.899681371918
 21
687.1751806147662
 31
0.0
  0
LINE
  5
989
330
A
100
AcDbEntity
  8
Layer1
 62
     5
370
    18
100
AcDbLine
 10
756.8996813719186
 20
682.1751806147664
 30
0.0
 11
1146.899681371918
 21
682.1751806147664
 31
0.0
  0
LINE
  5
98A
330
A
100
AcDbEntity
  8
Layer1
  6
DASHDOT
 62
     3
370
    18
100
AcDbLine
 10
578.8237048094186
 20
624.6751806147662
 30
0.0
 11
578.8237048094186
 21
609.6751806147664
 31
0.0
  0
LINE
  5
98B
330
A
100
AcDbEntity
  8
Layer1
  6
DASHDOT
 62
     3
370
    18
100
AcDbLine
 10
601.3237048094183
 20
597.1751806147664
 30
0.0
 11
616.3237048094186
 21
597.1751806147664
 31
0.0
  0
LINE
  5
98C
330
A
100
AcDbEntity
  8
Layer1
  6
DASHDOT
 62
     3
370
    18
100
AcDbLine
 10
608.8237048094184
 20
604.6751806147664
 30
0.0
 11
608.8237048094184
 21
589.6751806147664
 31
0.0
  0
LINE
  5
98D
330
A
100
AcDbEntity
  8
Layer1
  6
DASHDOT
 62
     3
370
    18
100
AcDbLine
 10
593.8237048094186
 20
692.1751806147665
 30
0.0
 11
593.8237048094186
 21
482.1751806147664
 31
0.0
  0
LINE
  5
98E
330
A
100
AcDbEntity
  8
Layer1
 62
     5
370
    18
100
AcDbLine
 10
1156.899681371919
 20
326.4834488439665
 30
0.0
 11
763.5984111826185
 21
326.4834488439665
 31
0.0
  0
LINE
  5
98F
330
A
100
AcDbEntity
  8
Layer1
 62
     5
370
    18
100
AcDbLine
 10
1156.899681371919
 20
376.4834488439665
 30
0.0
 11
763.5984111826185
 21
376.4834488439665
 31
0.0
  0
LINE
  5
990
330
A
100
AcDbEntity
  8
Layer1
 62
     5
370
    18
100
AcDbLine
 10
1151.899681371918
 20
353.9834488439665
 30
0.0
 11
854.3685278145185
 21
353.9834488439665
 31
0.0
  0
LINE
  5
991
330
A
100
AcDbEntity
  8
Layer1
 62
     5
370
    18
100
AcDbLine
 10
1151.899681371918
 20
348.9834488439665
 30
0.0
 11
854.3685278145185
 21
348.9834488439665
 31
0.0
  0
ARC
  5
992
330
A
100
AcDbEntity
  8
Layer1
 62
     5
370
    18
100
AcDbCircle
 10
806.8996813719186
 20
351.4834488439665
 30
0.0
 40
50.0
100
AcDbArc
 50
150.0
 51
210.0
  0
LINE
  5
993
330
A
100
AcDbEntity
  8
Layer1
 62
     5
370
    18
100
AcDbLine
 10
854.3685278145185
 20
353.9834488439665
 30
0.0
 11
854.3685278145185
 21
348.9834488439665
 31
0.0
  0
LINE
  5
994
330
A
100
AcDbEntity
  8
Layer1
 62
     5
370
    18
100
AcDbLine
 10
1156.899681371919
 20
376.4834488439665
 30
0.0
 11
1156.899681371919
 21
326.4834488439665
 31
0.0
  0
LINE
  5
995
330
A
100
AcDbEntity
  8
Layer1
 62
     5
370
    18
100
AcDbLine
 10
1151.899681371918
 20
376.4834488439665
 30
0.0
 11
1151.899681371918
 21
326.4834488439665
 31
0.0
  0
ARC
  5
996
330
A
100
AcDbEntity
  8
Layer1
 62
     5
370
    18
100
AcDbCircle
 10
1146.899681371918
 20
677.1751806147664
 30
0.0
 40
10.0
100
AcDbArc
 50
0.0
 51
90.0
  0
LINE
  5
997
330
A
100
AcDbEntity
  8
Layer1
 62
     5
370
    18
100
AcDbLine
 10
1156.899681371919
 20
677.1751806147664
 30
0.0
 11
1156.899681371919
 21
487.1751806147663
 31
0.0
  0
LINE
  5
998
330
A
100
AcDbEntity
  8
Layer1
 62
     5
370
    18
100
AcDbLine
 10
1151.899681371918
 20
487.1751806147663
 30
0.0
 11
1156.899681371919
 21
487.1751806147663
 31
0.0
  0
ARC
  5
999
330
A
100
AcDbEntity
  8
Layer1
 62
     5
370
    18
100
AcDbCircle
 10
1146.899681371918
 20
677.1751806147664
 30
0.0
 40
5.0
100
AcDbArc
 50
0.0
 51
90.0
  0
LINE
  5
99A
330
A
100
AcDbEntity
  8
Layer1
 62
     5
370
    18
100
AcDbLine
 10
1151.899681371918
 20
677.1751806147664
 30
0.0
 11
1151.899681371918
 21
487.1751806147663
 31
0.0
  0
LINE
  5
99B
330
A
100
AcDbEntity
  8
Layer1
 62
     5
370
    18
100
AcDbLine
 10
756.8996813719186
 20
687.1751806147662
 30
0.0
 11
756.8996813719186
 21
682.1751806147664
 31
0.0
  0
ARC
  5
99C
330
A
100
AcDbEntity
  8
Layer1
 62
     5
370
    18
100
AcDbCircle
 10
593.8237048094186
 20
537.1751806147663
 30
0.0
 40
50.0
100
AcDbArc
 50
240.0
 51
300.0
  0
LINE
  5
99D
330
A
100
AcDbEntity
  8
Layer1
 62
     5
370
    18
100
AcDbLine
 10
618.8237048094186
 20
687.1751806147662
 30
0.0
 11
568.8237048094186
 21
687.1751806147662
 31
0.0
  0
LINE
  5
99E
330
A
100
AcDbEntity
  8
Layer1
 62
     5
370
    18
100
AcDbLine
 10
568.8237048094186
 20
687.1751806147662
 30
0.0
 11
568.8237048094186
 21
493.8739104255666
 31
0.0
  0
LINE
  5
99F
330
A
100
AcDbEntity
  8
Layer1
 62
     5
370
    18
100
AcDbLine
 10
618.8237048094186
 20
687.1751806147662
 30
0.0
 11
618.8237048094186
 21
493.8739104255666
 31
0.0
  0
LINE
  5
9A0
330
A
100
AcDbEntity
  8
Layer1
 62
     5
370
    18
100
AcDbLine
 10
618.8237048094186
 20
682.1751806147664
 30
0.0
 11
568.8237048094186
 21
682.1751806147664
 31
0.0
  0
LINE
  5
9A1
330
A
100
AcDbEntity
  8
Layer1
 62
     5
370
    18
100
AcDbLine
 10
591.3237048094186
 20
682.1751806147664
 30
0.0
 11
591.3237048094186
 21
527.1751806147664
 31
0.0
  0
LINE
  5
9A2
330
A
100
AcDbEntity
  8
Layer1
 62
     5
370
    18
100
AcDbLine
 10
596.3237048094184
 20
527.1751806147664
 30
0.0
 11
591.3237048094186
 21
527.1751806147664
 31
0.0
  0
LINE
  5
9A3
330
A
100
AcDbEntity
  8
Layer1
 62
     5
370
    18
100
AcDbLine
 10
596.3237048094184
 20
682.1751806147664
 30
0.0
 11
596.3237048094184
 21
527.1751806147664
 31
0.0
  0
CIRCLE
  5
9A4
330
A
100
AcDbEntity
  8
Layer1
 62
     5
370
    18
100
AcDbCircle
 10
608.8237048094184
 20
597.1751806147664
 30
0.0
 40
5.5
  0
CIRCLE
  5
9A5
330
A
100
AcDbEntity
  8
Layer1
 62
     5
370
    18
100
AcDbCircle
 10
608.8237048094184
 20
597.1751806147664
 30
0.0
 40
3.0
  0
CIRCLE
  5
9A6
330
A
100
AcDbEntity
  8
Layer1
 62
     5
370
    18
100
AcDbCircle
 10
578.8237048094186
 20
617.1751806147664
 30
0.0
 40
5.5
  0
CIRCLE
  5
9A7
330
A
100
AcDbEntity
  8
Layer1
 62
     5
370
    18
100
AcDbCircle
 10
578.8237048094186
 20
617.1751806147664
 30
0.0
 40
3.0
  0
CIRCLE
  5
9A8
330
A
100
AcDbEntity
  8
Layer1
 62
     5
370
    18
100
AcDbCircle
 10
608.8237048094184
 20
637.1751806147662
 30
0.0
 40
5.5
  0
CIRCLE
  5
9A9
330
A
100
AcDbEntity
  8
Layer1
 62
     5
370
    18
100
AcDbCircle
 10
608.8237048094184
 20
637.1751806147662
 30
0.0
 40
3.0
  0
CIRCLE
  5
9AA
330
A
100
AcDbEntity
  8
Layer1
 62
     5
370
    18
100
AcDbCircle
 10
578.8237048094186
 20
657.1751806147664
 30
0.0
 40
5.5
  0
CIRCLE
  5
9AB
330
A
100
AcDbEntity
  8
Layer1
 62
     5
370
    18
100
AcDbCircle
 10
578.8237048094186
 20
657.1751806147664
 30
0.0
 40
3.0
  0
CIRCLE
  5
9AC
330
A
100
AcDbEntity
  8
Layer1
 62
     5
370
    18
100
AcDbCircle
 10
593.8237048094186
 20
507.1751806147664
 30
0.0
 40
5.5
  0
CIRCLE
  5
9AD
330
A
100
AcDbEntity
  8
Layer1
 62
     5
370
    18
100
AcDbCircle
 10
593.8237048094186
 20
507.1751806147664
 30
0.0
 40
3.0
  0
LINE
  5
9AE
330
A
100
AcDbEntity
  8
Layer1
  6
DASHDOT
 62
     3
370
    18
100
AcDbLine
 10
593.8237048094186
 20
514.6751806147664
 30
0.0
 11
593.8237048094186
 21
499.6751806147663
 31
0.0
  0
LINE
  5
9AF
330
A
100
AcDbEntity
  8
Layer1
  6
DASHDOT
 62
     3
370
    18
100
AcDbLine
 10
586.3237048094186
 20
507.1751806147664
 30
0.0
 11
601.3237048094183
 21
507.1751806147664
 31
0.0
  0
ENDSEC
  0
SECTION
  2
OBJECTS
  0
DICTIONARY
  5
19
330
0
100
AcDbDictionary
281
     1
  3
ACAD_COLOR
350
2A3
  3
ACAD_GROUP
350
1A
  3
ACAD_LAYOUT
350
1E
  3
ACAD_MATERIAL
350
2A2
  3
ACAD_MLINESTYLE
350
1B
  3
ACAD_PLOTSETTINGS
350
22
  3
ACAD_PLOTSTYLENAME
350
1F
  3
ACAD_WIPEOUT_VARS
350
23
  3
ACDBHEADERROUNDTRIPXREC
350
9DF
  3
AcDbVariableDictionary
350
9BD
  3
ASE_INDEX_DICTIONARY
350
9BB
  0
DICTIONARY
  5
2B5
330
2
100
AcDbDictionary
280
     1
281
     1
  3
ACAD_LAYERSTATES
360
2B6
  0
DICTIONARY
  5
2A3
102
{ACAD_REACTORS
330
19
102
}
330
19
100
AcDbDictionary
281
     1
  0
DICTIONARY
  5
1A
102
{ACAD_REACTORS
330
19
102
}
330
19
100
AcDbDictionary
281
     1
  0
DICTIONARY
  5
1E
102
{ACAD_REACTORS
330
19
102
}
330
19
100
AcDbDictionary
281
     1
  3
Layout1
350
21
  3
Model
350
20
  0
DICTIONARY
  5
2A2
102
{ACAD_REACTORS
330
19
102
}
330
19
100
AcDbDictionary
281
     1
  0
DICTIONARY
  5
1B
102
{ACAD_REACTORS
330
19
102
}
330
19
100
AcDbDictionary
281
     1
  3
Standard
350
1C
  0
DICTIONARY
  5
22
102
{ACAD_REACTORS
330
19
102
}
330
19
100
AcDbDictionary
281
     1
  0
ACDBDICTIONARYWDFLT
  5
1F
102
{ACAD_REACTORS
330
19
102
}
330
19
100
AcDbDictionary
281
     1
  3
Normal
350
1D
100
AcDbDictionaryWithDefault
340
1D
  0
WIPEOUTVARIABLES
  5
23
330
19
100
AcDbWipeoutVariables
 70
     1
  0
DICTIONARY
  5
9DF
102
{ACAD_REACTORS
330
19
102
}
330
19
100
AcDbDictionary
281
     1
  3
COLORDICT
350
9E1
  3
MATERIALDICT
350
9E0
  0
DICTIONARY
  5
9BD
102
{ACAD_REACTORS
330
19
102
}
330
19
100
AcDbDictionary
281
     1
  3
DIMASSOC
350
9BE
  3
PROJECTNAME
350
9BF
  0
DICTIONARY
  5
9BB
102
{ACAD_REACTORS
330
19
102
}
330
19
100
AcDbDictionary
281
     1
  3
ASEBlockHierarchyIndexRecord
350
9BC
1001
DCO15
1040
1776759282.984
  0
DICTIONARY
  5
2B6
102
{ACAD_REACTORS
330
2B5
102
}
330
2B5
100
AcDbDictionary
281
     1
  0
LAYOUT
  5
21
102
{ACAD_XDICTIONARY
360
9E4
102
}
102
{ACAD_REACTORS
330
1E
102
}
330
1E
100
AcDbPlotSettings
  1

  2

  4

  6

 40
0.0
 41
0.0
 42
0.0
 43
0.0
 44
0.0
 45
0.0
 46
0.0
 47
0.0
 48
0.0
 49
0.0
140
0.0
141
0.0
142
1.0
143
1.0
 70
     0
 72
     0
 73
     0
 74
     0
  7

 75
     0
147
1.0
148
0.0
149
0.0
100
AcDbLayout
  1
Layout1
 70
     0
 71
     1
 10
0.0
 20
0.0
 11
12.0
 21
9.0
 12
0.0
 22
0.0
 32
0.0
 14
1.000000000000000E+20
 24
1.000000000000000E+20
 34
1.000000000000000E+20
 15
-1.000000000000000E+20
 25
-1.000000000000000E+20
 35
-1.000000000000000E+20
146
0.0
 13
0.0
 23
0.0
 33
0.0
 16
1.0
 26
0.0
 36
0.0
 17
0.0
 27
1.0
 37
0.0
 76
     0
330
B
  0
LAYOUT
  5
20
102
{ACAD_XDICTIONARY
360
9E2
102
}
102
{ACAD_REACTORS
330
1E
102
}
330
1E
100
AcDbPlotSettings
  1

  2
クセロPDF2.pc3
  4
A3
  6

 40
3.174999952316282
 41
3.174999952316282
 42
3.17498779296875
 43
3.17498779296875
 44
419.9466552734373
 45
296.9259948730469
 46
0.0
 47
0.0
 48
446.8007230385185
 49
177.5867040522664
140
1288.795723038516
141
772.9367040522665
142
1.0
143
2.048861521241269
 70
 14512
 72
     1
 73
     0
 74
     4
  7
monochrome.stb
 75
     0
147
0.4880759336991046
148
-446.8007230385185
149
-177.5867040522664
100
AcDbLayout
  1
Model
 70
     0
 71
     0
 10
0.0
 20
0.0
 11
0.0
 21
0.0
 12
0.0
 22
0.0
 32
0.0
 14
0.0
 24
0.0
 34
0.0
 15
0.0
 25
0.0
 35
0.0
146
0.0
 13
0.0
 23
0.0
 33
0.0
 16
0.0
 26
0.0
 36
0.0
 17
0.0
 27
0.0
 37
0.0
 76
     0
330
A
  0
MLINESTYLE
  5
1C
102
{ACAD_REACTORS
330
1B
102
}
330
1B
100
AcDbMlineStyle
  2
STANDARD
 70
     0
  3

 62
     0
 51
90.0
 52
90.0
 71
     2
 49
0.5
 62
   256
  6
BYLAYER
 49
-0.5
 62
   256
  6
BYLAYER
  0
ACDBPLACEHOLDER
  5
1D
102
{ACAD_REACTORS
330
1F
102
}
330
1F
  0
XRECORD
  5
9E1
102
{ACAD_REACTORS
330
9DF
102
}
330
9DF
100
AcDbXrecord
280
     1
340
2A3
  0
XRECORD
  5
9E0
102
{ACAD_REACTORS
330
9DF
102
}
330
9DF
100
AcDbXrecord
280
     1
340
2A2
  0
DICTIONARYVAR
  5
9BE
102
{ACAD_REACTORS
330
9BD
102
}
330
9BD
100
DictionaryVariables
280
     0
  1
1
  0
DICTIONARYVAR
  5
9BF
102
{ACAD_REACTORS
330
9BD
102
}
330
9BD
100
DictionaryVariables
280
     0
  1

  0
XRECORD
  5
9BC
102
{ACAD_REACTORS
330
9BB
102
}
330
9BB
100
AcDbXrecord
280
     1
  0
DICTIONARY
  5
9E4
330
21
100
AcDbDictionary
280
     1
281
     1
  3
ACAD_XREC_ROUNDTRIP
360
9E5
  0
DICTIONARY
  5
9E2
330
20
100
AcDbDictionary
280
     1
281
     1
  3
ACAD_XREC_ROUNDTRIP
360
9E3
  0
XRECORD
  5
9E5
102
{ACAD_REACTORS
330
9E4
102
}
330
9E4
100
AcDbXrecord
280
     1
102
SHADEPLOT
 70
     0
102
SHADEPLOTRESLEVEL
 70
     2
102
SHADEPLOTCUSTOMDPI
 70
   300
  0
XRECORD
  5
9E3
102
{ACAD_REACTORS
330
9E2
102
}
330
9E2
100
AcDbXrecord
280
     1
102
SHADEPLOT
 70
     0
102
SHADEPLOTRESLEVEL
 70
     2
102
SHADEPLOTCUSTOMDPI
 70
   150
  0
ENDSEC
  0
EOF
