  0
SECTION
  2
HEADER
  9
$ACADVER
  1
AC1015
  9
$ACADMAINTVER
 70
    20
  9
$DWGCODEPAGE
  3
ANSI_932
  9
$INSBASE
 10
0.0
 20
0.0
 30
0.0
  9
$EXTMIN
 10
441.2911147940717
 20
195.1691031220257
 30
-0.0000000000000058
  9
$EXTMAX
 10
1283.412349160545
 20
790.5808337960734
 30
0.0000000000000104
  9
$LIMMIN
 10
0.0
 20
0.0
  9
$LIMMAX
 10
0.0
 20
0.0
  9
$ORTHOMODE
 70
     1
  9
$REGENMODE
 70
     1
  9
$FILLMODE
 70
     1
  9
$QTEXTMODE
 70
     0
  9
$MIRRTEXT
 70
     1
  9
$LTSCALE
 40
1.0
  9
$ATTMODE
 70
     1
  9
$TEXTSIZE
 40
0.0
  9
$TRACEWID
 40
0.05
  9
$TEXTSTYLE
  7
Standard
  9
$CLAYER
  8
0
  9
$CELTYPE
  6
Continuous
  9
$CECOLOR
 62
   256
  9
$CELTSCALE
 40
1.0
  9
$DISPSILH
 70
     0
  9
$DIMSCALE
 40
1.0
  9
$DIMASZ
 40
0.18
  9
$DIMEXO
 40
0.0625
  9
$DIMDLI
 40
0.38
  9
$DIMRND
 40
0.0
  9
$DIMDLE
 40
0.0
  9
$DIMEXE
 40
0.18
  9
$DIMTP
 40
0.0
  9
$DIMTM
 40
0.0
  9
$DIMTXT
 40
0.18
  9
$DIMCEN
 40
0.09
  9
$DIMTSZ
 40
0.0
  9
$DIMTOL
 70
     0
  9
$DIMLIM
 70
     0
  9
$DIMTIH
 70
     1
  9
$DIMTOH
 70
     1
  9
$DIMSE1
 70
     0
  9
$DIMSE2
 70
     0
  9
$DIMTAD
 70
     0
  9
$DIMZIN
 70
     0
  9
$DIMBLK
  1

  9
$DIMASO
 70
     1
  9
$DIMSHO
 70
     1
  9
$DIMPOST
  1

  9
$DIMAPOST
  1

  9
$DIMALT
 70
     0
  9
$DIMALTD
 70
     2
  9
$DIMALTF
 40
25.4
  9
$DIMLFAC
 40
1.0
  9
$DIMTOFL
 70
     0
  9
$DIMTVP
 40
0.0
  9
$DIMTIX
 70
     0
  9
$DIMSOXD
 70
     0
  9
$DIMSAH
 70
     0
  9
$DIMBLK1
  1

  9
$DIMBLK2
  1

  9
$DIMSTYLE
  2
Standard
  9
$DIMCLRD
 70
     0
  9
$DIMCLRE
 70
     0
  9
$DIMCLRT
 70
     0
  9
$DIMTFAC
 40
1.0
  9
$DIMGAP
 40
0.09
  9
$DIMJUST
 70
     0
  9
$DIMSD1
 70
     0
  9
$DIMSD2
 70
     0
  9
$DIMTOLJ
 70
     1
  9
$DIMTZIN
 70
     0
  9
$DIMALTZ
 70
     0
  9
$DIMALTTZ
 70
     0
  9
$DIMUPT
 70
     0
  9
$DIMDEC
 70
     4
  9
$DIMTDEC
 70
     4
  9
$DIMALTU
 70
     2
  9
$DIMALTTD
 70
     2
  9
$DIMTXSTY
  7
Standard
  9
$DIMAUNIT
 70
     0
  9
$DIMADEC
 70
     0
  9
$DIMALTRND
 40
0.0
  9
$DIMAZIN
 70
     0
  9
$DIMDSEP
 70
     0
  9
$DIMATFIT
 70
     3
  9
$DIMFRAC
 70
     0
  9
$DIMLDRBLK
  1

  9
$DIMLUNIT
 70
     2
  9
$DIMLWD
 70
     0
  9
$DIMLWE
 70
     0
  9
$DIMTMOVE
 70
     0
  9
$LUNITS
 70
     2
  9
$LUPREC
 70
     4
  9
$SKETCHINC
 40
0.1
  9
$FILLETRAD
 40
0.0
  9
$AUNITS
 70
     0
  9
$AUPREC
 70
     0
  9
$MENU
  1
acad
  9
$ELEVATION
 40
0.0
  9
$PELEVATION
 40
0.0
  9
$THICKNESS
 40
0.0
  9
$LIMCHECK
 70
     0
  9
$CHAMFERA
 40
0.0
  9
$CHAMFERB
 40
0.0
  9
$CHAMFERC
 40
0.0
  9
$CHAMFERD
 40
0.0
  9
$SKPOLY
 70
     0
  9
$TDCREATE
 40
2456367.446971748
  9
$TDUCREATE
 40
2456367.071971747
  9
$TDUPDATE
 40
2456386.719016204
  9
$TDUUPDATE
 40
2456386.344016204
  9
$TDINDWG
 40
0.0128641898
  9
$TDUSRTIMER
 40
0.0128636574
  9
$USRTIMER
 70
     1
  9
$ANGBASE
 50
0.0
  9
$ANGDIR
 70
     0
  9
$PDMODE
 70
     3
  9
$PDSIZE
 40
-1.0
  9
$PLINEWID
 40
0.0
  9
$SPLFRAME
 70
     0
  9
$SPLINETYPE
 70
     6
  9
$SPLINESEGS
 70
     8
  9
$HANDSEED
  5
95F
  9
$SURFTAB1
 70
     6
  9
$SURFTAB2
 70
     6
  9
$SURFTYPE
 70
     6
  9
$SURFU
 70
     6
  9
$SURFV
 70
     6
  9
$UCSBASE
  2

  9
$UCSNAME
  2

  9
$UCSORG
 10
0.0
 20
0.0
 30
0.0
  9
$UCSXDIR
 10
1.0
 20
0.0
 30
0.0
  9
$UCSYDIR
 10
0.0
 20
1.0
 30
0.0
  9
$UCSORTHOREF
  2

  9
$UCSORTHOVIEW
 70
     0
  9
$UCSORGTOP
 10
0.0
 20
0.0
 30
0.0
  9
$UCSORGBOTTOM
 10
0.0
 20
0.0
 30
0.0
  9
$UCSORGLEFT
 10
0.0
 20
0.0
 30
0.0
  9
$UCSORGRIGHT
 10
0.0
 20
0.0
 30
0.0
  9
$UCSORGFRONT
 10
0.0
 20
0.0
 30
0.0
  9
$UCSORGBACK
 10
0.0
 20
0.0
 30
0.0
  9
$PUCSBASE
  2

  9
$PUCSNAME
  2

  9
$PUCSORG
 10
0.0
 20
0.0
 30
0.0
  9
$PUCSXDIR
 10
1.0
 20
0.0
 30
0.0
  9
$PUCSYDIR
 10
0.0
 20
1.0
 30
0.0
  9
$PUCSORTHOREF
  2

  9
$PUCSORTHOVIEW
 70
     0
  9
$PUCSORGTOP
 10
0.0
 20
0.0
 30
0.0
  9
$PUCSORGBOTTOM
 10
0.0
 20
0.0
 30
0.0
  9
$PUCSORGLEFT
 10
0.0
 20
0.0
 30
0.0
  9
$PUCSORGRIGHT
 10
0.0
 20
0.0
 30
0.0
  9
$PUCSORGFRONT
 10
0.0
 20
0.0
 30
0.0
  9
$PUCSORGBACK
 10
0.0
 20
0.0
 30
0.0
  9
$USERI1
 70
     0
  9
$USERI2
 70
     0
  9
$USERI3
 70
     0
  9
$USERI4
 70
     0
  9
$USERI5
 70
     0
  9
$USERR1
 40
0.0
  9
$USERR2
 40
0.0
  9
$USERR3
 40
0.0
  9
$USERR4
 40
0.0
  9
$USERR5
 40
0.0
  9
$WORLDVIEW
 70
     1
  9
$SHADEDGE
 70
     3
  9
$SHADEDIF
 70
    70
  9
$TILEMODE
 70
     1
  9
$MAXACTVP
 70
    16
  9
$PINSBASE
 10
0.0
 20
0.0
 30
0.0
  9
$PLIMCHECK
 70
     0
  9
$PEXTMIN
 10
1.000000000000000E+20
 20
1.000000000000000E+20
 30
1.000000000000000E+20
  9
$PEXTMAX
 10
-1.000000000000000E+20
 20
-1.000000000000000E+20
 30
-1.000000000000000E+20
  9
$PLIMMIN
 10
0.0
 20
0.0
  9
$PLIMMAX
 10
12.0
 20
9.0
  9
$UNITMODE
 70
     0
  9
$VISRETAIN
 70
     0
  9
$PLINEGEN
 70
     1
  9
$PSLTSCALE
 70
     0
  9
$TREEDEPTH
 70
  3020
  9
$CMLSTYLE
  2
Standard
  9
$CMLJUST
 70
     0
  9
$CMLSCALE
 40
1.0
  9
$PROXYGRAPHICS
 70
     0
  9
$MEASUREMENT
 70
     0
  9
$CELWEIGHT
370
     0
  9
$ENDCAPS
280
     0
  9
$JOINSTYLE
280
     0
  9
$LWDISPLAY
290
     0
  9
$INSUNITS
 70
     0
  9
$HYPERLINKBASE
  1

  9
$STYLESHEET
  1
MONOCHROME.STB
  9
$XEDIT
290
     1
  9
$CEPSNTYPE
380
     0
  9
$PSTYLEMODE
290
     0
  9
$FINGERPRINTGUID
  2

  9
$VERSIONGUID
  2
{0ACACBC3-7DB6-494C-8B19-D8B0504C144D}
  9
$EXTNAMES
290
     1
  9
$PSVPSCALE
 40
0.0
  9
$OLESTARTUP
290
     0
  0
ENDSEC
  0
SECTION
  2
CLASSES
  0
CLASS
  1
IMAGE
  2
AcDbRasterImage
  3
ISM
 90
    32895
280
     0
281
     1
  0
CLASS
  1
DICTIONARYVAR
  2
AcDbDictionaryVar
  3
ObjectDBX Classes
 90
        0
280
     0
281
     0
  0
CLASS
  1
RASTERVARIABLES
  2
AcDbRasterVariables
  3
ISM
 90
    32768
280
     0
281
     0
  0
CLASS
  1
IMAGEDEF
  2
AcDbRasterImageDef
  3
ISM
 90
    32768
280
     0
281
     0
  0
CLASS
  1
IMAGEDEF_REACTOR
  2
AcDbRasterImageDefReactor
  3
ISM
 90
    32769
280
     0
281
     0
  0
CLASS
  1
IDBUFFER
  2
AcDbIdBuffer
  3
ObjectDBX Classes
 90
    32768
280
     0
281
     0
  0
CLASS
  1
SPATIAL_FILTER
  2
AcDbSpatialFilter
  3
ObjectDBX Classes
 90
    32768
280
     0
281
     0
  0
CLASS
  1
SORTENTSTABLE
  2
AcDbSortentsTable
  3
ObjectDBX Classes
 90
    32768
280
     0
281
     0
  0
CLASS
  1
LAYER_INDEX
  2
AcDbLayerIndex
  3
ObjectDBX Classes
 90
    32768
280
     0
281
     0
  0
CLASS
  1
SPATIAL_INDEX
  2
AcDbSpatialIndex
  3
ObjectDBX Classes
 90
    32768
280
     0
281
     0
  0
CLASS
  1
OBJECT_PTR
  2
CAseDLPNTableRecord
  3
ASE-LPNTableRecord
 90
    32769
280
     0
281
     0
  0
CLASS
  1
LAYOUT
  2
AcDbLayout
  3
ObjectDBX Classes
 90
        0
280
     0
281
     0
  0
CLASS
  1
PLOTSETTINGS
  2
AcDbPlotSettings
  3
ObjectDBX Classes
 90
    32768
280
     0
281
     0
  0
CLASS
  1
ACDBDICTIONARYWDFLT
  2
AcDbDictionaryWithDefault
  3
ObjectDBX Classes
 90
        0
280
     0
281
     0
  0
CLASS
  1
ACDBPLACEHOLDER
  2
AcDbPlaceHolder
  3
ObjectDBX Classes
 90
        0
280
     0
281
     0
  0
CLASS
  1
VBA_PROJECT
  2
AcDbVbaProject
  3
acad
 90
    32768
280
     0
281
     0
  0
CLASS
  1
WIPEOUT
  2
AcDbWipeout
  3
"WipeOut|Product Desc: Object Enabler for WipeOut entity^I^I^I^I^I^I|Company: Autodesk, Inc.^I^I^I^I^I^I|WEB Address: www.autodesk.com"
 90
    32895
280
     0
281
     1
  0
CLASS
  1
WIPEOUTVARIABLES
  2
AcDbWipeoutVariables
  3
"WipeOut|Product Desc:     WipeOut Dbx Application|Company:          Autodesk, Inc.|WEB Address:      www.autodesk.com"
 90
        0
280
     0
281
     0
  0
CLASS
  1
RTEXT
  2
RText
  3
RText|AutoCAD Express Tool|expresstools@autodesk.com
 90
    32768
280
     0
281
     1
  0
CLASS
  1
ARCALIGNEDTEXT
  2
AcDbArcAlignedText
  3
ATEXT|AutoCAD Express Tool|expresstools@autodesk.com
 90
    32768
280
     0
281
     1
  0
ENDSEC
  0
SECTION
  2
TABLES
  0
TABLE
  2
VPORT
  5
7
330
0
100
AcDbSymbolTable
 70
     2
  0
VPORT
  5
957
330
7
100
AcDbSymbolTableRecord
100
AcDbViewportTableRecord
  2
*Active
 70
     0
 10
0.0
 20
0.0
 11
1.0
 21
1.0
 12
862.3517319773087
 22
492.8749684590496
 13
0.0
 23
0.0
 14
1.0
 24
1.0
 15
0.0
 25
0.0
 16
0.0
 26
0.0
 36
1.0
 17
0.0
 27
0.0
 37
0.0
 40
600.7517461957879
 41
2.724550898203592
 42
50.0
 43
0.0
 44
0.0
 50
0.0
 51
0.0
 71
     0
 72
   100
 73
     1
 74
     1
 75
     0
 76
     0
 77
     0
 78
     0
281
     0
 65
     0
110
0.0
120
0.0
130
0.0
111
1.0
121
0.0
131
0.0
112
0.0
122
1.0
132
0.0
 79
     0
146
0.0
  0
ENDTAB
  0
TABLE
  2
LTYPE
  5
4
330
0
100
AcDbSymbolTable
 70
    12
  0
LTYPE
  5
11
330
4
100
AcDbSymbolTableRecord
100
AcDbLinetypeTableRecord
  2
ByBlock
 70
     0
  3

 72
    65
 73
     0
 40
0.0
  0
LTYPE
  5
12
330
4
100
AcDbSymbolTableRecord
100
AcDbLinetypeTableRecord
  2
ByLayer
 70
     0
  3

 72
    65
 73
     0
 40
0.0
  0
LTYPE
  5
13
330
4
100
AcDbSymbolTableRecord
100
AcDbLinetypeTableRecord
  2
Continuous
 70
     0
  3
Solid line
 72
    65
 73
     0
 40
0.0
  0
LTYPE
  5
24
330
4
100
AcDbSymbolTableRecord
100
AcDbLinetypeTableRecord
  2
DOT
 70
     0
  3
. . . . . . . . 
 72
    65
 73
     2
 40
1.0
 49
0.0
 74
     0
 49
-1.0
 74
     0
  0
LTYPE
  5
25
330
4
100
AcDbSymbolTableRecord
100
AcDbLinetypeTableRecord
  2
DASHED
 70
     0
  3
___  ___  ___  ___  
 72
    65
 73
     2
 40
4.0
 49
3.0
 74
     0
 49
-1.0
 74
     0
  0
LTYPE
  5
26
330
4
100
AcDbSymbolTableRecord
100
AcDbLinetypeTableRecord
  2
HIDDEN
 70
     0
  3
__ __ __ __ 
 72
    65
 73
     2
 40
3.0
 49
2.0
 74
     0
 49
-1.0
 74
     0
  0
LTYPE
  5
27
330
4
100
AcDbSymbolTableRecord
100
AcDbLinetypeTableRecord
  2
STITCH
 70
     0
  3
_ _ _ _ 
 72
    65
 73
     2
 40
2.0
 49
1.0
 74
     0
 49
-1.0
 74
     0
  0
LTYPE
  5
28
330
4
100
AcDbSymbolTableRecord
100
AcDbLinetypeTableRecord
  2
CENTER
 70
     0
  3
______  __  ______  __  
 72
    65
 73
     4
 40
43.0
 49
40.0
 74
     0
 49
-1.0
 74
     0
 49
1.0
 74
     0
 49
-1.0
 74
     0
  0
LTYPE
  5
29
330
4
100
AcDbSymbolTableRecord
100
AcDbLinetypeTableRecord
  2
DASHDOT
 70
     0
  3
____ . ____ . 
 72
    65
 73
     4
 40
32.0
 49
30.0
 74
     0
 49
-1.0
 74
     0
 49
0.0
 74
     0
 49
-1.0
 74
     0
  0
LTYPE
  5
2A
330
4
100
AcDbSymbolTableRecord
100
AcDbLinetypeTableRecord
  2
BORDER
 70
     0
  3
__ . __ . 
 72
    65
 73
     4
 40
22.0
 49
20.0
 74
     0
 49
-1.0
 74
     0
 49
0.0
 74
     0
 49
-1.0
 74
     0
  0
LTYPE
  5
2B
330
4
100
AcDbSymbolTableRecord
100
AcDbLinetypeTableRecord
  2
CUTTING
 70
     0
  3
________   ___   ___   
 72
    65
 73
     6
 40
45.0
 49
40.0
 74
     0
 49
-1.0
 74
     0
 49
1.0
 74
     0
 49
-1.0
 74
     0
 49
1.0
 74
     0
 49
-1.0
 74
     0
  0
LTYPE
  5
2C
330
4
100
AcDbSymbolTableRecord
100
AcDbLinetypeTableRecord
  2
PHANTOM
 70
     0
  3
______  __  __  
 72
    65
 73
     6
 40
35.0
 49
30.0
 74
     0
 49
-1.0
 74
     0
 49
1.0
 74
     0
 49
-1.0
 74
     0
 49
1.0
 74
     0
 49
-1.0
 74
     0
  0
LTYPE
  5
2D
330
4
100
AcDbSymbolTableRecord
100
AcDbLinetypeTableRecord
  2
DIVIDE
 70
     0
  3
____ . . ____ . . 
 72
    65
 73
     6
 40
23.0
 49
20.0
 74
     0
 49
-1.0
 74
     0
 49
0.0
 74
     0
 49
-1.0
 74
     0
 49
0.0
 74
     0
 49
-1.0
 74
     0
  0
LTYPE
  5
289
330
4
100
AcDbSymbolTableRecord
100
AcDbLinetypeTableRecord
  2
CENTER2
 70
     0
  3

 72
    65
 73
     4
 40
23.0
 49
20.0
 74
     0
 49
-1.0
 74
     0
 49
1.0
 74
     0
 49
-1.0
 74
     0
  0
ENDTAB
  0
TABLE
  2
LAYER
  5
2
102
{ACAD_XDICTIONARY
360
28E
102
}
330
0
100
AcDbSymbolTable
 70
     7
  0
LAYER
  5
14
330
2
100
AcDbSymbolTableRecord
100
AcDbLayerTableRecord
  2
0
 70
     0
 62
     7
  6
Continuous
370
    -3
390
1D
  0
LAYER
  5
2E
330
2
100
AcDbSymbolTableRecord
100
AcDbLayerTableRecord
  2
Layer1
 70
     0
 62
     7
  6
Continuous
370
    -3
390
1F
  0
LAYER
  5
49
330
2
100
AcDbSymbolTableRecord
100
AcDbLayerTableRecord
  2
ﾚｲﾔｰ1
 70
     0
 62
     7
  6
Continuous
370
    -3
390
1F
  0
LAYER
  5
D7
330
2
100
AcDbSymbolTableRecord
100
AcDbLayerTableRecord
  2
寸法線
 70
     0
 62
     7
  6
Continuous
370
    -3
390
1F
  0
LAYER
  5
28A
330
2
100
AcDbSymbolTableRecord
100
AcDbLayerTableRecord
  2
DEFPOINTS
 70
     0
 62
     7
  6
Continuous
290
     0
370
    -3
390
1D
  0
LAYER
  5
28B
330
2
100
AcDbSymbolTableRecord
100
AcDbLayerTableRecord
  2
____1
 70
     0
 62
     3
  6
CENTER2
370
    -3
390
1D
  0
LAYER
  5
28C
330
2
100
AcDbSymbolTableRecord
100
AcDbLayerTableRecord
  2
寸法線_1
 70
     0
 62
     7
  6
Continuous
370
    -3
390
1D
  0
ENDTAB
  0
TABLE
  2
STYLE
  5
3
330
0
100
AcDbSymbolTable
 70
     2
  0
STYLE
  5
17
330
3
100
AcDbSymbolTableRecord
100
AcDbTextStyleTableRecord
  2
Standard
 70
     0
 40
0.0
 41
1.0
 50
0.0
 71
     0
 42
0.0
  3
txt
  4
extfont
  0
STYLE
  5
28D
330
3
100
AcDbSymbolTableRecord
100
AcDbTextStyleTableRecord
  2
STYLE1
 70
     0
 40
0.0
 41
1.0
 50
0.0
 71
     0
 42
0.35
  3
ＭＳ ゴシック
  4

  0
ENDTAB
  0
TABLE
  2
VIEW
  5
5
330
0
100
AcDbSymbolTable
 70
     0
  0
ENDTAB
  0
TABLE
  2
UCS
  5
6
330
0
100
AcDbSymbolTable
 70
     0
  0
ENDTAB
  0
TABLE
  2
APPID
  5
8
330
0
100
AcDbSymbolTable
 70
     2
  0
APPID
  5
16
330
8
100
AcDbSymbolTableRecord
100
AcDbRegAppTableRecord
  2
ACAD
 70
     0
  0
APPID
  5
280
330
8
100
AcDbSymbolTableRecord
100
AcDbRegAppTableRecord
  2
DCO15
 70
     0
  0
ENDTAB
  0
TABLE
  2
DIMSTYLE
  5
9
330
0
100
AcDbSymbolTable
 70
     4
100
AcDbDimStyleTable
 71
     0
  0
DIMSTYLE
105
18
330
9
100
AcDbSymbolTableRecord
100
AcDbDimStyleTableRecord
  2
Standard
 70
     0
340
17
  0
DIMSTYLE
105
C8
330
9
100
AcDbSymbolTableRecord
100
AcDbDimStyleTableRecord
  2
VELDIM0
 70
     0
 41
6.0
 44
0.5
 46
3.0
 73
     0
 74
     0
 78
     8
140
5.9972220421
271
     3
340
17
  0
DIMSTYLE
105
154
330
9
100
AcDbSymbolTableRecord
100
AcDbDimStyleTableRecord
  2
VELDIM1
 70
     0
 41
6.0
 44
1.25
 46
5.0
 73
     0
 74
     0
 78
     8
140
5.9972220421
271
     3
340
17
  0
DIMSTYLE
105
1F2
330
9
100
AcDbSymbolTableRecord
100
AcDbDimStyleTableRecord
  2
VELDIM2
 70
     0
 41
6.0
 44
1.25
 46
5.0
 73
     0
 74
     0
 78
     8
140
5.9972220421
271
     3
340
17
  0
ENDTAB
  0
TABLE
  2
BLOCK_RECORD
  5
1
330
0
100
AcDbSymbolTable
 70
     2
  0
BLOCK_RECORD
  5
A
330
1
100
AcDbSymbolTableRecord
100
AcDbBlockTableRecord
  2
*MODEL_SPACE
340
20
  0
BLOCK_RECORD
  5
B
330
1
100
AcDbSymbolTableRecord
100
AcDbBlockTableRecord
  2
*PAPER_SPACE
340
21
  0
BLOCK_RECORD
  5
2F
330
1
100
AcDbSymbolTableRecord
100
AcDbBlockTableRecord
  2
CLUMP0
340
0
  0
BLOCK_RECORD
  5
129
330
1
100
AcDbSymbolTableRecord
100
AcDbBlockTableRecord
  2
CLUMP1
340
0
  0
ENDTAB
  0
ENDSEC
  0
SECTION
  2
BLOCKS
  0
BLOCK
  5
D
330
A
100
AcDbEntity
  8
0
100
AcDbBlockBegin
  2
*MODEL_SPACE
 70
     0
 10
0.0
 20
0.0
 30
0.0
  3
*MODEL_SPACE
  1

  0
ENDBLK
  5
E
330
A
100
AcDbEntity
  8
0
100
AcDbBlockEnd
  0
BLOCK
  5
F
330
B
100
AcDbEntity
 67
     1
  8
0
100
AcDbBlockBegin
  2
*PAPER_SPACE
 70
     0
 10
0.0
 20
0.0
 30
0.0
  3
*PAPER_SPACE
  1

  0
ENDBLK
  5
10
330
B
100
AcDbEntity
 67
     1
  8
0
100
AcDbBlockEnd
  0
BLOCK
  5
31
330
2F
100
AcDbEntity
  8
0
100
AcDbBlockBegin
  2
CLUMP0
 70
     0
 10
0.0
 20
0.0
 30
0.0
  3
CLUMP0
  1

  0
LINE
  5
32
330
2F
100
AcDbEntity
  8
Layer1
 62
     5
370
    18
100
AcDbLine
 10
844.2276214713
 20
-68.5074072151
 30
0.0
 11
844.2276214713
 21
-65.5074074074
 31
0.0
  0
ARC
  5
33
330
2F
100
AcDbEntity
  8
Layer1
 62
     5
370
    18
100
AcDbCircle
 10
847.2276214713
 20
-68.5074074074
 30
0.0
 40
3.0
100
AcDbArc
 50
179.9999963279
 51
251.7743628138
  0
LINE
  5
34
330
2F
100
AcDbEntity
  8
Layer1
 62
     5
370
    18
100
AcDbLine
 10
844.2276214713
 20
-65.5074074074
 30
0.0
 11
902.5728048372
 21
-65.5074074074
 31
0.0
  0
ARC
  5
35
330
2F
100
AcDbEntity
  8
Layer1
 62
     5
370
    18
100
AcDbCircle
 10
627.3573728456
 20
-736.2394448066002
 30
0.0
 40
700.0
100
AcDbArc
 50
54.62015127189999
 51
71.77436281369998
  0
ARC
  5
36
330
2F
100
AcDbEntity
  8
Layer1
 62
     5
370
    18
100
AcDbCircle
 10
627.3573728456
 20
-736.2394448066002
 30
0.0
 40
725.0
100
AcDbArc
 50
56.0113181552
 51
67.6906280429
  0
LINE
  5
37
330
2F
100
AcDbEntity
  8
Layer1
 62
     5
370
    18
100
AcDbLine
 10
1032.65348865
 20
-135.1071311569
 30
0.0
 11
1032.65348865
 21
-165.5074074074
 31
0.0
  0
ENDBLK
  5
38
330
2F
100
AcDbEntity
  8
0
100
AcDbBlockEnd
  0
BLOCK
  5
12B
330
129
100
AcDbEntity
  8
0
100
AcDbBlockBegin
  2
CLUMP1
 70
     0
 10
0.0
 20
0.0
 30
0.0
  3
CLUMP1
  1

  0
MTEXT
  5
12C
330
129
100
AcDbEntity
  8
ﾚｲﾔｰ1
370
     5
100
AcDbMText
 10
846.9229592949
 20
-275.7957129599
 30
0.0
 40
5.9972220421
 41
18.4230131025
 71
     1
 72
     1
  1
\W0.8;\fＭＳ ゴシック;\W1.0;ＨＬ
 73
     1
 44
1.0
1001
ACAD
1000
MTEXTBEGIN
1070
    73
1070
     1
1070
    44
1040
1.0
1070
    74
1070
     0
1000
MTEXTEND
  0
LINE
  5
12D
330
129
100
AcDbEntity
  8
ﾚｲﾔｰ1
370
     5
100
AcDbLine
 10
825.0
 20
-286.75
 30
0.0
 11
885.0
 21
-286.75
 31
0.0
  0
LINE
  5
12E
330
129
100
AcDbEntity
  8
ﾚｲﾔｰ1
370
     5
100
AcDbLine
 10
827.0
 20
-288.75
 30
0.0
 11
887.0
 21
-288.75
 31
0.0
  0
LINE
  5
12F
330
129
100
AcDbEntity
  8
ﾚｲﾔｰ1
370
     5
100
AcDbLine
 10
829.0
 20
-290.75
 30
0.0
 11
889.0
 21
-290.75
 31
0.0
  0
LINE
  5
130
330
129
100
AcDbEntity
  8
ﾚｲﾔｰ1
370
     5
100
AcDbLine
 10
831.0
 20
-292.75
 30
0.0
 11
891.0
 21
-292.75
 31
0.0
  0
LINE
  5
131
330
129
100
AcDbEntity
  8
ﾚｲﾔｰ1
370
     5
100
AcDbLine
 10
833.0
 20
-294.75
 30
0.0
 11
893.0
 21
-294.75
 31
0.0
  0
LINE
  5
132
330
129
100
AcDbEntity
  8
ﾚｲﾔｰ1
370
     5
100
AcDbLine
 10
835.0
 20
-296.75
 30
0.0
 11
895.0
 21
-296.75
 31
0.0
  0
LINE
  5
133
330
129
100
AcDbEntity
  8
ﾚｲﾔｰ1
370
     5
100
AcDbLine
 10
837.0
 20
-298.75
 30
0.0
 11
897.0
 21
-298.75
 31
0.0
  0
LINE
  5
134
330
129
100
AcDbEntity
  8
ﾚｲﾔｰ1
370
     5
100
AcDbLine
 10
823.0
 20
-284.75
 30
0.0
 11
883.0
 21
-284.75
 31
0.0
  0
ENDBLK
  5
135
330
129
100
AcDbEntity
  8
0
100
AcDbBlockEnd
  0
ENDSEC
  0
SECTION
  2
ENTITIES
  0
LWPOLYLINE
  5
5C1
330
A
100
AcDbEntity
  8
DEFPOINTS
100
AcDbPolyline
 90
        4
 70
     1
 43
0.0
 10
1283.38308245781
 20
790.5615138364923
 10
441.3880824578116
 20
790.5615138364923
 10
441.3880824578116
 20
195.211513836492
 10
1283.38308245781
 20
195.211513836492
  0
TEXT
  5
5CA
330
A
100
AcDbEntity
  8
____1
  6
Continuous
 62
     0
100
AcDbText
 10
1110.80474944237
 20
757.7319507776921
 30
0.0
 40
4.938888740539549
  1
H25.03
  7
STYLE1
100
AcDbText
  0
TEXT
  5
5CC
330
A
100
AcDbEntity
  8
____1
  6
Continuous
 62
     0
100
AcDbText
 10
1146.053318420617
 20
757.7319507776921
 30
0.0
 40
4.938888740539549
  1
ﾈｼﾞ仕様変更（木ﾈｼﾞ ⇒ 皿ﾀｯﾋﾟﾝﾈｼﾞ）
  7
STYLE1
100
AcDbText
  0
LINE
  5
5D1
330
A
100
AcDbEntity
  8
____1
  6
Continuous
 62
     0
100
AcDbLine
 10
1090.819511685727
 20
764.6467488359645
 30
0.0
 11
1085.869511685727
 21
756.0730973384985
 31
0.0
  0
LINE
  5
5D2
330
A
100
AcDbEntity
  8
____1
  6
Continuous
 62
     0
100
AcDbLine
 10
1090.819511685727
 20
764.6467488359645
 30
0.0
 11
1095.769511685727
 21
756.0730973384985
 31
0.0
  0
LINE
  5
5D3
330
A
100
AcDbEntity
  8
____1
  6
Continuous
 62
     0
100
AcDbLine
 10
1085.869511685727
 20
756.0730973384985
 30
0.0
 11
1095.769511685727
 21
756.0730973384985
 31
0.0
  0
TEXT
  5
5D4
330
A
100
AcDbEntity
  8
____1
  6
Continuous
 62
     0
100
AcDbText
 10
1089.356189866494
 20
757.1730459666142
 30
0.0
 40
4.682630310058592
  1
1
  7
STYLE1
100
AcDbText
  0
LINE
  5
5D9
330
A
100
AcDbEntity
  8
____1
  6
Continuous
 62
     0
100
AcDbLine
 10
1249.963752323738
 20
299.0471065356542
 30
0.0
 11
1245.013752323738
 21
290.4734550381881
 31
0.0
  0
LINE
  5
5DA
330
A
100
AcDbEntity
  8
____1
  6
Continuous
 62
     0
100
AcDbLine
 10
1249.963752323738
 20
299.0471065356542
 30
0.0
 11
1254.913752323739
 21
290.4734550381881
 31
0.0
  0
LINE
  5
5DB
330
A
100
AcDbEntity
  8
____1
  6
Continuous
 62
     0
100
AcDbLine
 10
1245.013752323738
 20
290.4734550381881
 30
0.0
 11
1254.913752323739
 21
290.4734550381881
 31
0.0
  0
TEXT
  5
5DC
330
A
100
AcDbEntity
  8
____1
  6
Continuous
 62
     0
100
AcDbText
 10
1248.500430504505
 20
291.5734036663039
 30
0.0
 40
4.682630310058592
  1
1
  7
STYLE1
100
AcDbText
  0
TEXT
  5
5DD
330
A
100
AcDbEntity
  8
____1
  6
Continuous
 62
     0
100
AcDbText
 10
1236.473195238986
 20
268.4068788819971
 30
0.0
 40
4.682630310058592
  1
1
  7
STYLE1
100
AcDbText
  0
LINE
  5
5DE
330
A
100
AcDbEntity
  8
____1
  6
Continuous
 62
     0
100
AcDbLine
 10
1232.98651705822
 20
267.3069302538813
 30
0.0
 11
1242.88651705822
 21
267.3069302538813
 31
0.0
  0
LINE
  5
5DF
330
A
100
AcDbEntity
  8
____1
  6
Continuous
 62
     0
100
AcDbLine
 10
1237.93651705822
 20
275.8805817513472
 30
0.0
 11
1242.88651705822
 21
267.3069302538813
 31
0.0
  0
LINE
  5
5E0
330
A
100
AcDbEntity
  8
____1
  6
Continuous
 62
     0
100
AcDbLine
 10
1237.93651705822
 20
275.8805817513472
 30
0.0
 11
1232.98651705822
 21
267.3069302538813
 31
0.0
  0
TEXT
  5
5EE
330
A
100
AcDbEntity
  8
____1
  6
Continuous
 62
     7
100
AcDbText
 10
1170.609154014667
 20
267.6246277057056
 30
0.0
 40
6.773332977294923
  1
ＬＳ-７３１
  7
STYLE1
100
AcDbText
  0
TEXT
  5
5F0
330
A
100
AcDbEntity
  8
____1
  6
Continuous
 62
     0
100
AcDbText
 10
1176.693639708789
 20
767.6611017763662
 30
0.0
 40
4.938888740539549
  1
改　訂　内　容
  7
STYLE1
100
AcDbText
  0
LINE
  5
5F1
330
A
100
AcDbEntity
  8
____1
  6
Continuous
 62
     0
100
AcDbLine
 10
1141.388082457812
 20
755.2115138364917
 30
0.0
 11
1141.388082457812
 21
775.211513836492
 31
0.0
  0
LINE
  5
5F2
330
A
100
AcDbEntity
  8
____1
  6
Continuous
 62
     0
100
AcDbLine
 10
1141.388082457812
 20
755.2115138364917
 30
0.0
 11
1141.388082457812
 21
775.211513836492
 31
0.0
  0
LINE
  5
5F3
330
A
100
AcDbEntity
  8
____1
  6
Continuous
 62
     0
100
AcDbLine
 10
1101.388082457812
 20
755.2115138364917
 30
0.0
 11
1101.388082457812
 21
775.211513836492
 31
0.0
  0
LINE
  5
600
330
A
100
AcDbEntity
  8
____1
  6
Continuous
 62
     0
100
AcDbLine
 10
1081.388082457812
 20
755.2115138364917
 30
0.0
 11
1081.388082457812
 21
775.211513836492
 31
0.0
  0
LINE
  5
601
330
A
100
AcDbEntity
  8
____1
  6
Continuous
 62
     0
100
AcDbLine
 10
1090.819511685727
 20
774.5467488359642
 30
0.0
 11
1085.869511685727
 21
765.9730973384986
 31
0.0
  0
LINE
  5
602
330
A
100
AcDbEntity
  8
____1
  6
Continuous
 62
     0
100
AcDbLine
 10
1090.819511685727
 20
774.5467488359642
 30
0.0
 11
1095.769511685727
 21
765.9730973384986
 31
0.0
  0
LINE
  5
603
330
A
100
AcDbEntity
  8
____1
  6
Continuous
 62
     0
100
AcDbLine
 10
1085.869511685727
 20
765.9730973384986
 30
0.0
 11
1095.769511685727
 21
765.9730973384986
 31
0.0
  0
LINE
  5
605
330
A
100
AcDbEntity
  8
____1
  6
Continuous
 62
     0
100
AcDbLine
 10
1081.388082457812
 20
755.211513836492
 30
0.0
 11
1261.388082457811
 21
755.211513836492
 31
0.0
  0
LINE
  5
606
330
A
100
AcDbEntity
  8
____1
  6
Continuous
 62
     0
100
AcDbLine
 10
1081.388082457812
 20
765.211513836492
 30
0.0
 11
1261.388082457811
 21
765.211513836492
 31
0.0
  0
TEXT
  5
608
330
A
100
AcDbEntity
  8
____1
  6
Continuous
 62
     0
100
AcDbText
 10
1110.80474944237
 20
767.6611017763662
 30
0.0
 40
4.938888740539549
  1
改訂日
  7
STYLE1
100
AcDbText
  0
POLYLINE
  5
60D
330
A
100
AcDbEntity
  8
____1
  6
Continuous
 62
     0
100
AcDb3dPolyline
 66
     1
 10
0.0
 20
0.0
 30
0.0
 70
     8
  0
VERTEX
  5
60E
330
60D
100
AcDbEntity
  8
____1
 62
     0
100
AcDbVertex
100
AcDb3dPolylineVertex
 10
1067.76386236676
 20
227.5346749841538
 30
0.0
 70
    32
  0
VERTEX
  5
60F
330
60D
100
AcDbEntity
  8
____1
 62
     0
100
AcDbVertex
100
AcDb3dPolylineVertex
 10
1069.142249195031
 20
226.2745089608491
 30
0.0
 70
    32
  0
VERTEX
  5
610
330
60D
100
AcDbEntity
  8
____1
 62
     0
100
AcDbVertex
100
AcDb3dPolylineVertex
 10
1070.543173219842
 20
225.0560154071052
 30
0.0
 70
    32
  0
VERTEX
  5
611
330
60D
100
AcDbEntity
  8
____1
 62
     0
100
AcDbVertex
100
AcDb3dPolylineVertex
 10
1071.989171637729
 20
223.9208667924834
 30
0.0
 70
    32
  0
VERTEX
  5
612
330
60D
100
AcDbEntity
  8
____1
 62
     0
100
AcDbVertex
100
AcDb3dPolylineVertex
 10
1073.502781645233
 20
222.9107355865445
 30
0.0
 70
    32
  0
VERTEX
  5
613
330
60D
100
AcDbEntity
  8
____1
 62
     0
100
AcDbVertex
100
AcDb3dPolylineVertex
 10
1073.50278164915
 20
222.9107355841924
 30
0.0
 70
    32
  0
SEQEND
  5
614
330
60D
100
AcDbEntity
  8
____1
 62
     0
  0
LINE
  5
615
330
A
100
AcDbEntity
  8
____1
  6
Continuous
 62
     7
100
AcDbLine
 10
966.388082457812
 20
248.2115138364921
 30
0.0
 11
1036.388082457811
 21
248.2115138364921
 31
0.0
  0
TEXT
  5
616
330
A
100
AcDbEntity
  8
____1
  6
Continuous
 62
     7
100
AcDbText
 10
961.3880824578115
 20
251.1656198690653
 30
0.0
 40
5.644444274902342
  1
 設計　　 岸本
  7
STYLE1
100
AcDbText
  0
TEXT
  5
617
330
A
100
AcDbEntity
  8
____1
  6
Continuous
 62
     7
100
AcDbText
 10
961.3880824578115
 20
240.1656198690653
 30
0.0
 40
5.644444274902342
  1
 製図　　 岸本
  7
STYLE1
100
AcDbText
  0
TEXT
  5
618
330
A
100
AcDbEntity
  8
____1
  6
Continuous
 62
     7
100
AcDbText
 10
963.4984456750656
 20
273.1656198690653
 30
0.0
 40
5.644444274902342
  1
 日　　付
  7
STYLE1
100
AcDbText
  0
TEXT
  5
619
330
A
100
AcDbEntity
  8
____1
  6
Continuous
 62
     7
100
AcDbText
 10
1123.621426131451
 20
273.1644677159065
 30
0.0
 40
5.644444274902342
  1
型番
  7
STYLE1
100
AcDbText
  0
TEXT
  5
61A
330
A
100
AcDbEntity
  8
____1
  6
Continuous
 62
     7
100
AcDbText
 10
1123.621426131451
 20
251.1644677159065
 30
0.0
 40
5.644444274902342
  1
品名
  7
STYLE1
100
AcDbText
  0
TEXT
  5
61B
330
A
100
AcDbEntity
  8
____1
  6
Continuous
 62
     7
100
AcDbText
 10
1123.621426131451
 20
229.1644677159065
 30
0.0
 40
5.644444274902342
  1
図番
  7
STYLE1
100
AcDbText
  0
LINE
  5
61C
330
A
100
AcDbEntity
  8
____1
  6
Continuous
 62
     5
100
AcDbLine
 10
461.3880824578116
 20
215.2115138364921
 30
0.0
 11
461.3880824578116
 21
775.211513836492
 31
0.0
  0
ARC
  5
61D
330
A
100
AcDbEntity
  8
____1
  6
Continuous
 62
     0
100
AcDbCircle
 10
1070.06786236676
 20
229.3475784112823
 30
0.0
 40
7.296000000000057
100
AcDbArc
 50
331.3992813832578
 51
358.4920422457636
  0
LINE
  5
61E
330
A
100
AcDbEntity
  8
____1
  6
Continuous
 62
     0
100
AcDbLine
 10
1059.775498730397
 20
225.8915784112823
 30
0.0
 11
1062.655498730397
 21
225.8915784112823
 31
0.0
  0
ARC
  5
61F
330
A
100
AcDbEntity
  8
____1
  6
Continuous
 62
     0
100
AcDbCircle
 10
1072.56386236676
 20
229.7315784112823
 30
0.0
 40
10.56000000000012
100
AcDbArc
 50
270.0
 51
302.5449588540466
  0
LINE
  5
62D
330
A
100
AcDbEntity
  8
____1
  6
Continuous
 62
     0
100
AcDbLine
 10
1062.655498730397
 20
228.7715784112823
 30
0.0
 11
1059.775498730397
 21
228.7715784112823
 31
0.0
  0
LINE
  5
62E
330
A
100
AcDbEntity
  8
____1
  6
Continuous
 62
     0
100
AcDbLine
 10
1059.775498730397
 20
228.7715784112823
 30
0.0
 11
1059.775498730397
 21
229.7315784112823
 31
0.0
  0
LINE
  5
62F
330
A
100
AcDbEntity
  8
____1
  6
Continuous
 62
     0
100
AcDbLine
 10
1089.301429051465
 20
229.3475784112823
 30
0.0
 11
1094.098869051465
 21
229.3475784112823
 31
0.0
  0
LINE
  5
630
330
A
100
AcDbEntity
  8
____1
  6
Continuous
 62
     0
100
AcDbLine
 10
1099.255803654639
 20
230.3243378809792
 30
0.0
 11
1100.821429051465
 21
232.6115784112823
 31
0.0
  0
LINE
  5
631
330
A
100
AcDbEntity
  8
____1
  6
Continuous
 62
     0
100
AcDbLine
 10
1046.335498730397
 20
225.8915784112823
 30
0.0
 11
1046.335498730397
 21
223.0115784112823
 31
0.0
  0
LINE
  5
632
330
A
100
AcDbEntity
  8
____1
  6
Continuous
 62
     7
100
AcDbLine
 10
966.388082457812
 20
270.2115138364921
 30
0.0
 11
996.388082457812
 21
270.2115138364921
 31
0.0
  0
LINE
  5
633
330
A
100
AcDbEntity
  8
____1
  6
Continuous
 62
     7
100
AcDbLine
 10
1006.388082457812
 20
270.2115138364921
 30
0.0
 11
1036.388082457811
 21
270.2115138364921
 31
0.0
  0
LINE
  5
634
330
A
100
AcDbEntity
  8
____1
  6
Continuous
 62
     7
100
AcDbLine
 10
1046.388082457811
 20
270.2115138364921
 30
0.0
 11
1076.388082457811
 21
270.2115138364921
 31
0.0
  0
LINE
  5
635
330
A
100
AcDbEntity
  8
____1
  6
Continuous
 62
     7
100
AcDbLine
 10
1046.388082457811
 20
248.2115138364921
 30
0.0
 11
1076.388082457811
 21
248.2115138364921
 31
0.0
  0
LINE
  5
636
330
A
100
AcDbEntity
  8
____1
  6
Continuous
 62
     7
100
AcDbLine
 10
1001.388082457811
 20
281.2115138364921
 30
0.0
 11
1001.388082457811
 21
259.2115138364921
 31
0.0
  0
LINE
  5
637
330
A
100
AcDbEntity
  8
____1
  6
Continuous
 62
     0
100
AcDbLine
 10
1099.53688061507
 20
229.3475784112823
 30
0.0
 11
1099.255803654639
 21
230.3243378809792
 31
0.0
  0
LINE
  5
638
330
A
100
AcDbEntity
  8
____1
  6
Continuous
 62
     0
100
AcDbLine
 10
1085.043862366759
 20
232.6115784112823
 30
0.0
 11
1067.76386236676
 21
232.6115784112823
 31
0.0
  0
POLYLINE
  5
643
330
A
100
AcDbEntity
  8
____1
  6
Continuous
 62
     0
100
AcDb3dPolyline
 66
     1
 10
0.0
 20
0.0
 30
0.0
 70
     8
  0
VERTEX
  5
644
330
643
100
AcDbEntity
  8
____1
 62
     0
100
AcDbVertex
100
AcDb3dPolylineVertex
 10
1080.598327567968
 20
222.9664404532092
 30
0.0
 70
    32
  0
VERTEX
  5
645
330
643
100
AcDbEntity
  8
____1
 62
     0
100
AcDbVertex
100
AcDb3dPolylineVertex
 10
1081.679447659324
 20
222.6890024116972
 30
0.0
 70
    32
  0
VERTEX
  5
646
330
643
100
AcDbEntity
  8
____1
 62
     0
100
AcDbVertex
100
AcDb3dPolylineVertex
 10
1082.786507986402
 20
222.4533265396399
 30
0.0
 70
    32
  0
VERTEX
  5
647
330
643
100
AcDbEntity
  8
____1
 62
     0
100
AcDbVertex
100
AcDb3dPolylineVertex
 10
1085.043862366759
 20
222.0515784112823
 30
0.0
 70
    32
  0
SEQEND
  5
648
330
643
100
AcDbEntity
  8
____1
 62
     0
  0
POLYLINE
  5
649
330
A
100
AcDbEntity
  8
____1
  6
Continuous
 62
     0
100
AcDb3dPolyline
 66
     1
 10
0.0
 20
0.0
 30
0.0
 70
     8
  0
VERTEX
  5
64A
330
649
100
AcDbEntity
  8
____1
 62
     0
100
AcDbVertex
100
AcDb3dPolylineVertex
 10
1074.357746350858
 20
227.0670106818156
 30
0.0
 70
    32
  0
VERTEX
  5
64B
330
649
100
AcDbEntity
  8
____1
 62
     0
100
AcDbVertex
100
AcDb3dPolylineVertex
 10
1075.167927300333
 20
226.1788869190304
 30
0.0
 70
    32
  0
VERTEX
  5
64C
330
649
100
AcDbEntity
  8
____1
 62
     0
100
AcDbVertex
100
AcDb3dPolylineVertex
 10
1076.01163840267
 20
225.3447446212075
 30
0.0
 70
    32
  0
SEQEND
  5
64D
330
649
100
AcDbEntity
  8
____1
 62
     0
  0
POLYLINE
  5
64E
330
A
100
AcDbEntity
  8
____1
  6
Continuous
 62
     0
100
AcDb3dPolyline
 66
     1
 10
0.0
 20
0.0
 30
0.0
 70
     8
  0
VERTEX
  5
64F
330
64E
100
AcDbEntity
  8
____1
 62
     0
100
AcDbVertex
100
AcDb3dPolylineVertex
 10
1078.244733011433
 20
220.8298196682867
 30
0.0
 70
    32
  0
VERTEX
  5
650
330
64E
100
AcDbEntity
  8
____1
 62
     0
100
AcDbVertex
100
AcDb3dPolylineVertex
 10
1079.905469730817
 20
220.3430619365304
 30
0.0
 70
    32
  0
VERTEX
  5
651
330
64E
100
AcDbEntity
  8
____1
 62
     0
100
AcDbVertex
100
AcDb3dPolylineVertex
 10
1081.599674124015
 20
219.9181877054927
 30
0.0
 70
    32
  0
VERTEX
  5
652
330
64E
100
AcDbEntity
  8
____1
 62
     0
100
AcDbVertex
100
AcDb3dPolylineVertex
 10
1085.043862366759
 20
219.1715784112823
 30
0.0
 70
    32
  0
SEQEND
  5
653
330
64E
100
AcDbEntity
  8
____1
 62
     0
  0
LINE
  5
654
330
A
100
AcDbEntity
  8
____1
  6
Continuous
 62
     0
100
AcDbLine
 10
1083.12386236676
 20
229.7315784112823
 30
0.0
 11
1085.043862366759
 21
232.6115784112823
 31
0.0
  0
LINE
  5
655
330
A
100
AcDbEntity
  8
____1
  6
Continuous
 62
     0
100
AcDbLine
 10
1067.76386236676
 20
222.0515784112823
 30
0.0
 11
1067.76386236676
 21
219.1715784112823
 31
0.0
  0
LINE
  5
656
330
A
100
AcDbEntity
  8
____1
  6
Continuous
 62
     0
100
AcDbLine
 10
1067.76386236676
 20
222.0515784112823
 30
0.0
 11
1070.06786236676
 21
222.0515784112823
 31
0.0
  0
LINE
  5
657
330
A
100
AcDbEntity
  8
____1
  6
Continuous
 62
     0
100
AcDbLine
 10
1093.141429051465
 20
232.6115784112823
 30
0.0
 11
1100.821429051465
 21
232.6115784112823
 31
0.0
  0
LINE
  5
658
330
A
100
AcDbEntity
  8
____1
  6
Continuous
 62
     0
100
AcDbLine
 10
1046.335498730397
 20
228.7715784112823
 30
0.0
 11
1044.125379412215
 21
228.7715784112823
 31
0.0
  0
LINE
  5
659
330
A
100
AcDbEntity
  8
____1
  6
Continuous
 62
     0
100
AcDbLine
 10
1106.581429051463
 20
224.3555784112822
 30
0.0
 11
1106.581429051463
 21
220.8995784112823
 31
0.0
  0
LINE
  5
65A
330
A
100
AcDbEntity
  8
____1
  6
Continuous
 62
     0
100
AcDbLine
 10
1085.043862366759
 20
222.0515784112823
 30
0.0
 11
1085.043862366759
 21
219.1715784112823
 31
0.0
  0
LINE
  5
65B
330
A
100
AcDbEntity
  8
____1
  6
Continuous
 62
     0
100
AcDbLine
 10
1046.335498730397
 20
225.8915784112823
 30
0.0
 11
1046.045379412215
 21
225.8915784112823
 31
0.0
  0
LINE
  5
65C
330
A
100
AcDbEntity
  8
____1
  6
Continuous
 62
     0
100
AcDbLine
 10
1046.335498730397
 20
222.0515784112823
 30
0.0
 11
1046.335498730397
 21
219.1715784112823
 31
0.0
  0
LINE
  5
65D
330
A
100
AcDbEntity
  8
____1
  6
Continuous
 62
     0
100
AcDbLine
 10
1067.76386236676
 20
219.1715784112823
 30
0.0
 11
1067.76386236676
 21
222.0515784112823
 31
0.0
  0
LINE
  5
65E
330
A
100
AcDbEntity
  8
____1
  6
Continuous
 62
     0
100
AcDbLine
 10
1051.135498730397
 20
225.8915784112823
 30
0.0
 11
1054.975498730397
 21
225.8915784112823
 31
0.0
  0
LINE
  5
65F
330
A
100
AcDbEntity
  8
____1
  6
Continuous
 62
     0
100
AcDbLine
 10
1102.741429051465
 20
218.2115784112823
 30
0.0
 11
1101.967917359921
 21
220.8995784112823
 31
0.0
  0
LINE
  5
660
330
A
100
AcDbEntity
  8
____1
  6
Continuous
 62
     0
100
AcDbLine
 10
1044.125379412215
 20
225.8915784112823
 30
0.0
 11
1046.045379412215
 21
225.8915784112823
 31
0.0
  0
LINE
  5
661
330
A
100
AcDbEntity
  8
____1
  6
Continuous
 62
     0
100
AcDbLine
 10
1089.301429051465
 20
224.3555784112822
 30
0.0
 11
1095.563189051465
 21
224.3555784112822
 31
0.0
  0
LINE
  5
662
330
A
100
AcDbEntity
  8
____1
  6
Continuous
 62
     5
100
AcDbLine
 10
961.3880824578115
 20
215.2115138364921
 30
0.0
 11
461.3880824578116
 21
215.2115138364921
 31
0.0
  0
LINE
  5
663
330
A
100
AcDbEntity
  8
____1
  6
Continuous
 62
     5
100
AcDbLine
 10
1261.388082457811
 20
775.211513836492
 30
0.0
 11
461.3880824578115
 21
775.211513836492
 31
0.0
  0
LINE
  5
664
330
A
100
AcDbEntity
  8
____1
  6
Continuous
 62
     5
100
AcDbLine
 10
1261.388082457811
 20
281.2115138364921
 30
0.0
 11
1261.388082457811
 21
775.211513836492
 31
0.0
  0
LINE
  5
665
330
A
100
AcDbEntity
  8
____1
  6
Continuous
 62
     0
100
AcDbLine
 10
1100.973402327936
 20
224.3555784112822
 30
0.0
 11
1100.531395647054
 21
225.8915784112823
 31
0.0
  0
LINE
  5
666
330
A
100
AcDbEntity
  8
____1
  6
Continuous
 62
     0
100
AcDbLine
 10
1097.365429051465
 20
218.2115784112823
 30
0.0
 11
1096.576949051465
 21
220.8995784112823
 31
0.0
  0
LINE
  5
667
330
A
100
AcDbEntity
  8
____1
  6
Continuous
 62
     0
100
AcDbLine
 10
1052.095498730397
 20
222.0515784112823
 30
0.0
 11
1046.335498730397
 21
222.0515784112823
 31
0.0
  0
LINE
  5
668
330
A
100
AcDbEntity
  8
____1
  6
Continuous
 62
     0
100
AcDbLine
 10
1067.76386236676
 20
229.1555784112822
 30
0.0
 11
1077.36386236676
 21
229.1555784112822
 31
0.0
  0
LINE
  5
669
330
A
100
AcDbEntity
  8
____1
  6
Continuous
 62
     0
100
AcDbLine
 10
1106.581429051463
 20
229.3475784112823
 30
0.0
 11
1106.581429051463
 21
225.8915784112823
 31
0.0
  0
LINE
  5
66A
330
A
100
AcDbEntity
  8
____1
  6
Continuous
 62
     0
100
AcDbLine
 10
1089.301429051465
 20
225.8915784112823
 30
0.0
 11
1095.112629051465
 21
225.8915784112823
 31
0.0
  0
LINE
  5
66B
330
A
100
AcDbEntity
  8
____1
  6
Continuous
 62
     0
100
AcDbLine
 10
1089.301429051465
 20
224.3555784112822
 30
0.0
 11
1089.301429051465
 21
220.8995784112823
 31
0.0
  0
LINE
  5
66C
330
A
100
AcDbEntity
  8
____1
  6
Continuous
 62
     0
100
AcDbLine
 10
1051.135498730397
 20
223.0115784112823
 30
0.0
 11
1051.135498730397
 21
225.8915784112823
 31
0.0
  0
LINE
  5
66D
330
A
100
AcDbEntity
  8
____1
  6
Continuous
 62
     0
100
AcDbLine
 10
1054.975498730397
 20
228.7715784112823
 30
0.0
 11
1051.135498730397
 21
228.7715784112823
 31
0.0
  0
LINE
  5
66E
330
A
100
AcDbEntity
  8
____1
  6
Continuous
 62
     0
100
AcDbLine
 10
1054.015498730397
 20
232.6115784112823
 30
0.0
 11
1046.335498730397
 21
232.6115784112823
 31
0.0
  0
LINE
  5
66F
330
A
100
AcDbEntity
  8
____1
  6
Continuous
 62
     0
100
AcDbLine
 10
1051.135498730397
 20
229.7315784112823
 30
0.0
 11
1054.015498730397
 21
232.6115784112823
 31
0.0
  0
LINE
  5
670
330
A
100
AcDbEntity
  8
____1
  6
Continuous
 62
     0
100
AcDbLine
 10
1046.335498730397
 20
232.6115784112823
 30
0.0
 11
1046.335498730397
 21
228.7715784112823
 31
0.0
  0
LINE
  5
671
330
A
100
AcDbEntity
  8
____1
  6
Continuous
 62
     0
100
AcDbLine
 10
1101.967917359921
 20
220.8995784112823
 30
0.0
 11
1106.581429051463
 21
220.8995784112823
 31
0.0
  0
LINE
  5
672
330
A
100
AcDbEntity
  8
____1
  6
Continuous
 62
     0
100
AcDbLine
 10
1094.098869051465
 20
229.3475784112823
 30
0.0
 11
1093.141429051465
 21
232.6115784112823
 31
0.0
  0
LINE
  5
673
330
A
100
AcDbEntity
  8
____1
  6
Continuous
 62
     0
100
AcDbLine
 10
1099.53688061507
 20
229.3475784112823
 30
0.0
 11
1106.581429051463
 21
229.3475784112823
 31
0.0
  0
LINE
  5
674
330
A
100
AcDbEntity
  8
____1
  6
Continuous
 62
     7
100
AcDbLine
 10
1041.388082457811
 20
259.2115138364921
 30
0.0
 11
1041.388082457811
 21
237.2115138364921
 31
0.0
  0
LINE
  5
675
330
A
100
AcDbEntity
  8
____1
  6
Continuous
 62
     7
100
AcDbLine
 10
961.3880824578115
 20
281.2115138364921
 30
0.0
 11
961.3880824578115
 21
215.2115138364921
 31
0.0
  0
TEXT
  5
677
330
A
100
AcDbEntity
  8
____1
  6
Continuous
 62
     0
100
AcDbText
 10
1078.958818900287
 20
284.9717706584633
 30
0.0
 40
6.773332977294923
  1
          天板側　SUS 皿ﾀｯﾋﾟﾝﾈｼﾞ 5x16
  7
STYLE1
100
AcDbText
  0
TEXT
  5
678
330
A
100
AcDbEntity
  8
____1
  6
Continuous
 62
     0
100
AcDbText
 10
1078.958818900287
 20
293.438436880082
 30
0.0
 40
6.773332977294923
  1
取付ビス：壁側　　SUS 皿ﾀｯﾋﾟﾝﾈｼﾞ 5x45
  7
STYLE1
100
AcDbText
  0
TEXT
  5
679
330
A
100
AcDbEntity
  8
____1
  6
Continuous
 62
     7
100
AcDbText
 10
1152.077089961208
 20
245.1837369388357
 30
0.0
 40
6.773332977294923
  1
カウンターブラケット
  7
STYLE1
100
AcDbText
  0
LINE
  5
67A
330
A
100
AcDbEntity
  8
____1
  6
Continuous
 62
     0
100
AcDbLine
 10
1046.335498730397
 20
223.0115784112823
 30
0.0
 11
1051.135498730397
 21
223.0115784112823
 31
0.0
  0
LINE
  5
67B
330
A
100
AcDbEntity
  8
____1
  6
Continuous
 62
     0
100
AcDbLine
 10
1059.775498730397
 20
229.7315784112823
 30
0.0
 11
1062.655498730397
 21
232.6115784112823
 31
0.0
  0
LINE
  5
67C
330
A
100
AcDbEntity
  8
____1
  6
Continuous
 62
     0
100
AcDbLine
 10
1095.563189051465
 20
224.3555784112822
 30
0.0
 11
1095.112629051465
 21
225.8915784112823
 31
0.0
  0
LINE
  5
67D
330
A
100
AcDbEntity
  8
____1
  6
Continuous
 62
     0
100
AcDbLine
 10
1051.135498730397
 20
228.7715784112823
 30
0.0
 11
1051.135498730397
 21
229.7315784112823
 31
0.0
  0
LINE
  5
67E
330
A
100
AcDbEntity
  8
____1
  6
Continuous
 62
     0
100
AcDbLine
 10
1080.940283522768
 20
223.3012464900531
 30
0.0
 11
1080.598327567967
 21
222.9664404532092
 31
0.0
  0
LINE
  5
67F
330
A
100
AcDbEntity
  8
____1
  6
Continuous
 62
     0
100
AcDbLine
 10
1083.12386236676
 20
229.7315784112823
 30
0.0
 11
1085.043862366759
 21
232.6115784112823
 31
0.0
  0
LINE
  5
680
330
A
100
AcDbEntity
  8
____1
  6
Continuous
 62
     0
100
AcDbLine
 10
1100.531395647054
 20
225.8915784112823
 30
0.0
 11
1106.581429051463
 21
225.8915784112823
 31
0.0
  0
LINE
  5
681
330
A
100
AcDbEntity
  8
____1
  6
Continuous
 62
     0
100
AcDbLine
 10
1067.76386236676
 20
219.1715784112823
 30
0.0
 11
1072.56386236676
 21
219.1715784112823
 31
0.0
  0
LINE
  5
682
330
A
100
AcDbEntity
  8
____1
  6
Continuous
 62
     0
100
AcDbLine
 10
1054.975498730397
 20
232.6115784112823
 30
0.0
 11
1054.975498730397
 21
228.7715784112823
 31
0.0
  0
LINE
  5
683
330
A
100
AcDbEntity
  8
____1
  6
Continuous
 62
     5
100
AcDbLine
 10
961.3880824578115
 20
215.2115138364921
 30
0.0
 11
1261.388082457811
 21
215.2115138364921
 31
0.0
  0
LINE
  5
684
330
A
100
AcDbEntity
  8
____1
  6
Continuous
 62
     0
100
AcDbLine
 10
1076.473582350799
 20
225.8549622734711
 30
0.0
 11
1076.01163840267
 21
225.3447446212076
 31
0.0
  0
LINE
  5
685
330
A
100
AcDbEntity
  8
____1
  6
Continuous
 62
     0
100
AcDbLine
 10
1067.76386236676
 20
228.1531266977181
 30
0.0
 11
1075.44386236676
 21
228.1531266977181
 31
0.0
  0
ARC
  5
686
330
A
100
AcDbEntity
  8
____1
  6
Continuous
 62
     0
100
AcDbCircle
 10
1070.06786236676
 20
229.3475784112823
 30
0.0
 40
7.29599999999998
100
AcDbArc
 50
270.0
 51
298.0859048152062
  0
LINE
  5
687
330
A
100
AcDbEntity
  8
____1
  6
Continuous
 62
     0
100
AcDbLine
 10
1075.44386236676
 20
228.1531266977181
 30
0.0
 11
1074.357746350858
 21
227.0670106818156
 31
0.0
  0
LINE
  5
688
330
A
100
AcDbEntity
  8
____1
  6
Continuous
 62
     0
100
AcDbLine
 10
1067.76386236676
 20
227.5346749841538
 30
0.0
 11
1067.76386236676
 21
228.1531266977181
 31
0.0
  0
LINE
  5
689
330
A
100
AcDbEntity
  8
____1
  6
Continuous
 62
     0
100
AcDbLine
 10
1044.125379412215
 20
228.7715784112823
 30
0.0
 11
1044.125379412215
 21
225.8915784112823
 31
0.0
  0
LINE
  5
68A
330
A
100
AcDbEntity
  8
____1
  6
Continuous
 62
     0
100
AcDbLine
 10
1062.655498730397
 20
228.7715784112823
 30
0.0
 11
1062.655498730397
 21
225.8915784112823
 31
0.0
  0
LINE
  5
68B
330
A
100
AcDbEntity
  8
____1
  6
Continuous
 62
     0
100
AcDbLine
 10
1062.655498730397
 20
232.6115784112823
 30
0.0
 11
1054.975498730397
 21
232.6115784112823
 31
0.0
  0
LINE
  5
68C
330
A
100
AcDbEntity
  8
____1
  6
Continuous
 62
     0
100
AcDbLine
 10
1067.76386236676
 20
232.6115784112823
 30
0.0
 11
1067.76386236676
 21
229.1555784112822
 31
0.0
  0
LINE
  5
68D
330
A
100
AcDbEntity
  8
____1
  6
Continuous
 62
     5
100
AcDbLine
 10
1261.388082457811
 20
215.2115138364921
 30
0.0
 11
1261.388082457811
 21
281.2115138364921
 31
0.0
  0
ARC
  5
68E
330
A
100
AcDbEntity
  8
____1
  6
Continuous
 62
     0
100
AcDbCircle
 10
1054.015498730397
 20
224.9315784112823
 30
0.0
 40
5.759999999999998
100
AcDbArc
 50
270.0
 51
0.0
  0
LINE
  5
68F
330
A
100
AcDbEntity
  8
____1
  6
Continuous
 62
     0
100
AcDbLine
 10
1100.973402327936
 20
224.3555784112822
 30
0.0
 11
1106.581429051463
 21
224.3555784112822
 31
0.0
  0
ARC
  5
690
330
A
100
AcDbEntity
  8
____1
  6
Continuous
 62
     0
100
AcDbCircle
 10
1072.56386236676
 20
229.7315784112823
 30
0.0
 40
10.56
100
AcDbArc
 50
322.4876119796974
 51
0.0
  0
LINE
  5
691
330
A
100
AcDbEntity
  8
____1
  6
Continuous
 62
     0
100
AcDbLine
 10
1046.335498730397
 20
219.1715784112823
 30
0.0
 11
1054.015498730397
 21
219.1715784112823
 31
0.0
  0
LINE
  5
692
330
A
100
AcDbEntity
  8
____1
  6
Continuous
 62
     0
100
AcDbLine
 10
1089.301429051465
 20
220.8995784112823
 30
0.0
 11
1096.576949051465
 21
220.8995784112823
 31
0.0
  0
ARC
  5
693
330
A
100
AcDbEntity
  8
____1
  6
Continuous
 62
     0
100
AcDbCircle
 10
1052.095498730397
 20
224.9315784112823
 30
0.0
 40
2.879999999999999
100
AcDbArc
 50
270.0
 51
0.0
  0
LINE
  5
694
330
A
100
AcDbEntity
  8
____1
  6
Continuous
 62
     0
100
AcDbLine
 10
1059.775498730397
 20
224.9315784112823
 30
0.0
 11
1059.775498730397
 21
225.8915784112823
 31
0.0
  0
LINE
  5
695
330
A
100
AcDbEntity
  8
____1
  6
Continuous
 62
     7
100
AcDbLine
 10
1261.388082457811
 20
281.2115138364921
 30
0.0
 11
961.3880824578115
 21
281.2115138364921
 31
0.0
  0
LINE
  5
696
330
A
100
AcDbEntity
  8
____1
  6
Continuous
 62
     7
100
AcDbLine
 10
1121.388082457811
 20
281.2115138364921
 30
0.0
 11
1121.388082457811
 21
215.2115138364921
 31
0.0
  0
LINE
  5
697
330
A
100
AcDbEntity
  8
____1
  6
Continuous
 62
     7
100
AcDbLine
 10
1081.388082457811
 20
281.2115138364921
 30
0.0
 11
1081.388082457811
 21
237.2115138364921
 31
0.0
  0
LINE
  5
698
330
A
100
AcDbEntity
  8
____1
  6
Continuous
 62
     7
100
AcDbLine
 10
1041.388082457811
 20
281.2115138364921
 30
0.0
 11
1041.388082457811
 21
259.2115138364921
 31
0.0
  0
LINE
  5
699
330
A
100
AcDbEntity
  8
____1
  6
Continuous
 62
     7
100
AcDbLine
 10
961.3880824578115
 20
237.2115138364921
 30
0.0
 11
1261.388082457811
 21
237.2115138364921
 31
0.0
  0
TEXT
  5
69A
330
A
100
AcDbEntity
  8
____1
  6
Continuous
 62
     7
100
AcDbText
 10
985.4069410079487
 20
220.3757529712547
 30
0.0
 40
10.15999984741211
  1
株式会社
  7
STYLE1
100
AcDbText
  0
LINE
  5
69B
330
A
100
AcDbEntity
  8
____1
  6
Continuous
 62
     0
100
AcDbLine
 10
1089.301429051465
 20
229.3475784112823
 30
0.0
 11
1089.301429051465
 21
225.8915784112823
 31
0.0
  0
TEXT
  5
69C
330
A
100
AcDbEntity
  8
____1
  6
Continuous
 62
     7
100
AcDbText
 10
1083.498445675065
 20
273.1656198690653
 30
0.0
 40
5.644444274902342
  1
 検　　印
  7
STYLE1
100
AcDbText
  0
LINE
  5
69D
330
A
100
AcDbEntity
  8
____1
  6
Continuous
 62
     7
100
AcDbLine
 10
1081.388082457811
 20
270.2115138364921
 30
0.0
 11
1121.388082457811
 21
270.2115138364921
 31
0.0
  0
LINE
  5
69E
330
A
100
AcDbEntity
  8
____1
  6
Continuous
 62
     7
100
AcDbLine
 10
1121.388082457811
 20
259.2115138364921
 30
0.0
 11
1261.388082457811
 21
259.2115138364921
 31
0.0
  0
LINE
  5
69F
330
A
100
AcDbEntity
  8
____1
  6
Continuous
 62
     7
100
AcDbLine
 10
961.3880824578115
 20
259.2115138364921
 30
0.0
 11
1081.388082457811
 21
259.2115138364921
 31
0.0
  0
TEXT
  5
6A0
330
A
100
AcDbEntity
  8
____1
  6
Continuous
 62
     7
100
AcDbText
 10
1043.498445675065
 20
251.1656198690653
 30
0.0
 40
5.644444274902342
  1
 尺　　度
  7
STYLE1
100
AcDbText
  0
TEXT
  5
6A1
330
A
100
AcDbEntity
  8
____1
  6
Continuous
 62
     7
100
AcDbText
 10
1054.332527114183
 20
240.1512851816701
 30
0.0
 40
5.644444274902342
  1
1：2
  7
STYLE1
100
AcDbText
  0
TEXT
  5
6A2
330
A
100
AcDbEntity
  8
____1
  6
Continuous
 62
     7
100
AcDbText
 10
1043.498445675065
 20
273.1656198690653
 30
0.0
 40
5.644444274902342
  1
 板　　厚
  7
STYLE1
100
AcDbText
  0
TEXT
  5
6A3
330
A
100
AcDbEntity
  8
____1
  6
Continuous
 62
     7
100
AcDbText
 10
1003.498445675065
 20
273.1656198690653
 30
0.0
 40
5.644444274902342
  1
 材　　質
  7
STYLE1
100
AcDbText
  0
TEXT
  5
6A6
330
A
100
AcDbEntity
  8
____1
  6
Continuous
 62
     7
100
AcDbText
 10
972.5686378014396
 20
262.1512851816701
 30
0.0
 40
5.644444274902342
  1
H14.5
  7
STYLE1
100
AcDbText
  0
LINE
  5
6A7
330
A
100
AcDbEntity
  8
____1
  6
Continuous
 62
     0
100
AcDbLine
 10
1102.741429051465
 20
218.2115784112823
 30
0.0
 11
1097.365429051465
 21
218.2115784112823
 31
0.0
  0
LINE
  5
6A8
330
A
100
AcDbEntity
  8
____1
  6
Continuous
 62
     0
100
AcDbLine
 10
1054.975498730397
 20
225.8915784112823
 30
0.0
 11
1054.975498730397
 21
224.9315784112823
 31
0.0
  0
MTEXT
  5
6A9
330
A
100
AcDbEntity
  8
____1
  6
Continuous
 62
     0
100
AcDbMText
 10
961.3880824578115
 20
292.5510947958786
 30
0.0
 40
6.773332977294923
 41
121.977129013
 71
     1
 72
     1
  1
\W0.8;\fＭＳ ゴシック;\W1.0;表面処理：電解研磨仕上げ
  7
STYLE1
 73
     1
 44
1.0
1001
ACAD
1000
MTEXTBEGIN
1070
    73
1070
     1
1070
    44
1040
1.0
1070
    74
1070
     0
1000
MTEXTEND
  0
MTEXT
  5
6AA
330
A
100
AcDbEntity
  8
____1
  6
Continuous
 62
     7
100
AcDbMText
 10
1061.388082457811
 20
268.1779055696921
 30
0.0
 40
5.644444274902342
 41
46.0
 71
     2
 72
     1
  1
\W0.8;\fＭＳ ゴシック;\W1.0;5.0t
  7
STYLE1
 73
     1
 44
1.0
1001
ACAD
1000
MTEXTBEGIN
1070
    73
1070
     1
1070
    44
1040
1.0
1070
    74
1070
     0
1000
MTEXTEND
  0
MTEXT
  5
6AB
330
A
100
AcDbEntity
  8
____1
  6
Continuous
 62
     7
100
AcDbMText
 10
1021.388082457811
 20
268.1779055696921
 30
0.0
 40
5.644444274902342
 41
46.0
 71
     2
 72
     1
  1
\W0.8;\fＭＳ ゴシック;\W1.0;SUS304 HL
  7
STYLE1
 73
     1
 44
1.0
1001
ACAD
1000
MTEXTBEGIN
1070
    73
1070
     1
1070
    44
1040
1.0
1070
    74
1070
     0
1000
MTEXTEND
  0
LINE
  5
7D0
330
A
100
AcDbEntity
  8
Layer1
 62
     5
370
    18
100
AcDbLine
 10
1055.841893528411
 20
582.2797588369921
 30
0.0
 11
1055.841893528411
 21
551.879482586492
 31
0.0
  0
ARC
  5
7D1
330
A
100
AcDbEntity
  8
Layer1
 62
     5
370
    18
100
AcDbCircle
 10
650.5457777240117
 20
-18.85255481270803
 30
0.0
 40
725.0
100
AcDbArc
 50
56.0113181552
 51
67.6906280429
  0
ARC
  5
7D2
330
A
100
AcDbEntity
  8
Layer1
 62
     5
370
    18
100
AcDbCircle
 10
650.5457777240117
 20
-18.85255481270803
 30
0.0
 40
700.0
100
AcDbArc
 50
54.62015127189999
 51
71.77436281369998
  0
LINE
  5
7D3
330
A
100
AcDbEntity
  8
Layer1
 62
     5
370
    18
100
AcDbLine
 10
867.4160263497117
 20
651.879482586492
 30
0.0
 11
925.7612097156115
 21
651.879482586492
 31
0.0
  0
ARC
  5
7D4
330
A
100
AcDbEntity
  8
Layer1
 62
     5
370
    18
100
AcDbCircle
 10
870.4160263497117
 20
648.879482586492
 30
0.0
 40
3.0
100
AcDbArc
 50
179.9999963279
 51
251.7743628138
  0
LINE
  5
7D5
330
A
100
AcDbEntity
  8
Layer1
 62
     5
370
    18
100
AcDbLine
 10
867.4160263497117
 20
648.879482778792
 30
0.0
 11
867.4160263497117
 21
651.879482586492
 31
0.0
  0
SOLID
  5
7D6
330
A
100
AcDbEntity
  8
寸法線
100
AcDbTrace
 10
1081.304201234511
 20
388.3553687524921
 30
0.0
 11
1082.804201234512
 21
382.355368752492
 31
0.0
 12
1079.804201234511
 22
382.355368752492
 32
0.0
 13
1081.304201234511
 23
383.8553687524921
 33
0.0
  0
LINE
  5
7D7
330
A
100
AcDbEntity
  8
寸法線
100
AcDbLine
 10
1081.304201234511
 20
388.3553687524921
 30
0.0
 11
1081.304201234511
 21
385.355368752492
 31
0.0
  0
SOLID
  5
7D8
330
A
100
AcDbEntity
  8
寸法線
100
AcDbTrace
 10
1081.304201234511
 20
393.355368752492
 30
0.0
 11
1079.804201234511
 21
399.355368752492
 31
0.0
 12
1082.804201234512
 22
399.355368752492
 32
0.0
 13
1081.304201234511
 23
397.855368752492
 33
0.0
  0
LINE
  5
7D9
330
A
100
AcDbEntity
  8
寸法線
100
AcDbLine
 10
1081.304201234511
 20
393.355368752492
 30
0.0
 11
1081.304201234511
 21
396.3553687524921
 31
0.0
  0
LINE
  5
7DA
330
A
100
AcDbEntity
  8
寸法線
100
AcDbLine
 10
1081.304201234511
 20
393.355368752492
 30
0.0
 11
1081.304201234511
 21
393.355368752492
 31
0.0
  0
LINE
  5
7DB
330
A
100
AcDbEntity
  8
寸法線
100
AcDbLine
 10
1081.304201234511
 20
393.355368752492
 30
0.0
 11
1081.304201234511
 21
388.3553687524921
 31
0.0
  0
LINE
  5
7DC
330
A
100
AcDbEntity
  8
寸法線
100
AcDbLine
 10
1081.304201234511
 20
388.3553687524921
 30
0.0
 11
1081.304201234511
 21
393.355368752492
 31
0.0
  0
LINE
  5
7DD
330
A
100
AcDbEntity
  8
寸法線
100
AcDbLine
 10
1081.304201234511
 20
388.3553687524921
 30
0.0
 11
1081.304201234511
 21
388.3553687524921
 31
0.0
  0
LINE
  5
7DE
330
A
100
AcDbEntity
  8
寸法線
100
AcDbLine
 10
1057.341893528412
 20
393.355368752492
 30
0.0
 11
1081.804201234511
 21
393.355368752492
 31
0.0
  0
LINE
  5
7DF
330
A
100
AcDbEntity
  8
寸法線
100
AcDbLine
 10
1057.341893528412
 20
388.3553687524921
 30
0.0
 11
1081.804201234511
 21
388.3553687524921
 31
0.0
  0
TEXT
  5
7E0
330
A
100
AcDbEntity
  8
寸法線
100
AcDbText
 10
1079.245867932911
 20
389.0914799165921
 30
0.0
 40
5.9972220421
  1
5
 50
90.0
100
AcDbText
  0
SOLID
  5
7E1
330
A
100
AcDbEntity
  8
寸法線
100
AcDbTrace
 10
1095.077261856912
 20
401.8553687524919
 30
0.0
 11
1096.577261856912
 21
395.855368752492
 31
0.0
 12
1093.577261856911
 22
395.855368752492
 32
0.0
 13
1095.077261856912
 23
397.355368752492
 33
0.0
  0
LINE
  5
7E2
330
A
100
AcDbEntity
  8
寸法線
100
AcDbLine
 10
1095.077261856912
 20
401.8553687524919
 30
0.0
 11
1095.077261856912
 21
398.8553687524921
 31
0.0
  0
SOLID
  5
7E3
330
A
100
AcDbEntity
  8
寸法線
100
AcDbTrace
 10
1095.077261856912
 20
409.8553687524919
 30
0.0
 11
1093.577261856911
 21
415.855368752492
 31
0.0
 12
1096.577261856912
 22
415.855368752492
 32
0.0
 13
1095.077261856912
 23
414.3553687524919
 33
0.0
  0
LINE
  5
7E4
330
A
100
AcDbEntity
  8
寸法線
100
AcDbLine
 10
1095.077261856912
 20
409.8553687524919
 30
0.0
 11
1095.077261856912
 21
412.8553687524918
 31
0.0
  0
LINE
  5
7E5
330
A
100
AcDbEntity
  8
寸法線
100
AcDbLine
 10
1095.077261856912
 20
409.8553687524919
 30
0.0
 11
1095.077261856912
 21
409.8553687524919
 31
0.0
  0
LINE
  5
7E6
330
A
100
AcDbEntity
  8
寸法線
100
AcDbLine
 10
1095.077261856912
 20
409.8553687524919
 30
0.0
 11
1095.077261856912
 21
401.8553687524919
 31
0.0
  0
LINE
  5
7E7
330
A
100
AcDbEntity
  8
寸法線
100
AcDbLine
 10
1095.077261856912
 20
401.8553687524919
 30
0.0
 11
1095.077261856912
 21
409.8553687524919
 31
0.0
  0
LINE
  5
7E8
330
A
100
AcDbEntity
  8
寸法線
100
AcDbLine
 10
1095.077261856912
 20
401.8553687524919
 30
0.0
 11
1095.077261856912
 21
401.8553687524919
 31
0.0
  0
LINE
  5
7E9
330
A
100
AcDbEntity
  8
寸法線
100
AcDbLine
 10
1061.841893528411
 20
409.8553687524919
 30
0.0
 11
1095.577261856911
 21
409.8553687524919
 31
0.0
  0
LINE
  5
7EA
330
A
100
AcDbEntity
  8
寸法線
100
AcDbLine
 10
1029.341893528411
 20
401.8553687524919
 30
0.0
 11
1095.577261856911
 21
401.8553687524919
 31
0.0
  0
TEXT
  5
7EB
330
A
100
AcDbEntity
  8
寸法線
100
AcDbText
 10
1093.018928555411
 20
404.091479916592
 30
0.0
 40
5.9972220421
  1
8
 50
90.0
100
AcDbText
  0
SOLID
  5
7EC
330
A
100
AcDbEntity
  8
寸法線
100
AcDbTrace
 10
1095.077261856912
 20
379.8553687524921
 30
0.0
 11
1096.577261856912
 21
373.8553687524921
 31
0.0
 12
1093.577261856911
 22
373.8553687524921
 32
0.0
 13
1095.077261856912
 23
375.3553687524922
 33
0.0
  0
LINE
  5
7ED
330
A
100
AcDbEntity
  8
寸法線
100
AcDbLine
 10
1095.077261856912
 20
379.8553687524921
 30
0.0
 11
1095.077261856912
 21
376.855368752492
 31
0.0
  0
SOLID
  5
7EE
330
A
100
AcDbEntity
  8
寸法線
100
AcDbTrace
 10
1095.077261856912
 20
401.8553687524919
 30
0.0
 11
1093.577261856911
 21
407.8553687524919
 31
0.0
 12
1096.577261856912
 22
407.8553687524919
 32
0.0
 13
1095.077261856912
 23
406.355368752492
 33
0.0
  0
LINE
  5
7EF
330
A
100
AcDbEntity
  8
寸法線
100
AcDbLine
 10
1095.077261856912
 20
401.8553687524919
 30
0.0
 11
1095.077261856912
 21
404.8553687524919
 31
0.0
  0
LINE
  5
7F0
330
A
100
AcDbEntity
  8
寸法線
100
AcDbLine
 10
1095.077261856912
 20
401.8553687524919
 30
0.0
 11
1095.077261856912
 21
383.7998134088921
 31
0.0
  0
LINE
  5
7F1
330
A
100
AcDbEntity
  8
寸法線
100
AcDbLine
 10
1095.077261856912
 20
401.8553687524919
 30
0.0
 11
1095.077261856912
 21
397.9109240960923
 31
0.0
  0
LINE
  5
7F2
330
A
100
AcDbEntity
  8
寸法線
100
AcDbLine
 10
1095.077261856912
 20
379.8553687524921
 30
0.0
 11
1095.077261856912
 21
383.7998134088921
 31
0.0
  0
LINE
  5
7F3
330
A
100
AcDbEntity
  8
寸法線
100
AcDbLine
 10
1095.077261856912
 20
379.8553687524921
 30
0.0
 11
1095.077261856912
 21
397.9109240960923
 31
0.0
  0
LINE
  5
7F4
330
A
100
AcDbEntity
  8
寸法線
100
AcDbLine
 10
1029.341893528411
 20
401.8553687524919
 30
0.0
 11
1095.577261856911
 21
401.8553687524919
 31
0.0
  0
LINE
  5
7F5
330
A
100
AcDbEntity
  8
寸法線
100
AcDbLine
 10
934.3418935284116
 20
379.8553687524921
 30
0.0
 11
1095.577261856911
 21
379.8553687524921
 31
0.0
  0
TEXT
  5
7F6
330
A
100
AcDbEntity
  8
寸法線
100
AcDbText
 10
1093.018928555411
 20
387.3275910806921
 30
0.0
 40
5.9972220421
  1
22
 50
90.0
100
AcDbText
  0
SOLID
  5
7F7
330
A
100
AcDbEntity
  8
寸法線
100
AcDbTrace
 10
1095.077261856912
 20
371.855368752492
 30
0.0
 11
1096.577261856912
 21
365.855368752492
 31
0.0
 12
1093.577261856911
 22
365.855368752492
 32
0.0
 13
1095.077261856912
 23
367.3553687524921
 33
0.0
  0
LINE
  5
7F8
330
A
100
AcDbEntity
  8
寸法線
100
AcDbLine
 10
1095.077261856912
 20
371.855368752492
 30
0.0
 11
1095.077261856912
 21
368.855368752492
 31
0.0
  0
SOLID
  5
7F9
330
A
100
AcDbEntity
  8
寸法線
100
AcDbTrace
 10
1095.077261856912
 20
379.8553687524921
 30
0.0
 11
1093.577261856911
 21
385.8553687524922
 31
0.0
 12
1096.577261856912
 22
385.8553687524922
 32
0.0
 13
1095.077261856912
 23
384.355368752492
 33
0.0
  0
LINE
  5
7FA
330
A
100
AcDbEntity
  8
寸法線
100
AcDbLine
 10
1095.077261856912
 20
379.8553687524921
 30
0.0
 11
1095.077261856912
 21
382.855368752492
 31
0.0
  0
LINE
  5
7FB
330
A
100
AcDbEntity
  8
寸法線
100
AcDbLine
 10
1095.077261856912
 20
379.8553687524921
 30
0.0
 11
1095.077261856912
 21
379.8553687524921
 31
0.0
  0
LINE
  5
7FC
330
A
100
AcDbEntity
  8
寸法線
100
AcDbLine
 10
1095.077261856912
 20
379.8553687524921
 30
0.0
 11
1095.077261856912
 21
371.855368752492
 31
0.0
  0
LINE
  5
7FD
330
A
100
AcDbEntity
  8
寸法線
100
AcDbLine
 10
1095.077261856912
 20
371.855368752492
 30
0.0
 11
1095.077261856912
 21
379.8553687524921
 31
0.0
  0
LINE
  5
7FE
330
A
100
AcDbEntity
  8
寸法線
100
AcDbLine
 10
1095.077261856912
 20
371.855368752492
 30
0.0
 11
1095.077261856912
 21
371.855368752492
 31
0.0
  0
LINE
  5
7FF
330
A
100
AcDbEntity
  8
寸法線
100
AcDbLine
 10
934.3418935284116
 20
379.8553687524921
 30
0.0
 11
1095.577261856911
 21
379.8553687524921
 31
0.0
  0
LINE
  5
800
330
A
100
AcDbEntity
  8
寸法線
100
AcDbLine
 10
1061.841893528411
 20
371.855368752492
 30
0.0
 11
1095.577261856911
 21
371.855368752492
 31
0.0
  0
TEXT
  5
801
330
A
100
AcDbEntity
  8
寸法線
100
AcDbText
 10
1093.018928555411
 20
374.0914799165921
 30
0.0
 40
5.9972220421
  1
8
 50
90.0
100
AcDbText
  0
SOLID
  5
802
330
A
100
AcDbEntity
  8
寸法線
100
AcDbTrace
 10
975.0624949357117
 20
629.5555216547921
 30
0.0
 11
976.4971862853116
 21
635.571472180892
 31
0.0
 12
979.1594346093116
 22
634.1885644250918
 32
0.0
 13
977.1368565694118
 23
633.5488941408921
 33
0.0
  0
LINE
  5
803
330
A
100
AcDbEntity
  8
寸法線
100
AcDbLine
 10
975.0624949357117
 20
629.5555216547921
 30
0.0
 11
976.4454026915117
 21
632.217769978892
 31
0.0
  0
SOLID
  5
804
330
A
100
AcDbEntity
  8
寸法線
100
AcDbTrace
 10
963.5382636374115
 20
607.370118954392
 30
0.0
 11
962.1035722878117
 21
601.354168428292
 31
0.0
 12
959.4413239637118
 22
602.737076184092
 32
0.0
 13
961.4639020037117
 23
603.376746468292
 33
0.0
  0
LINE
  5
805
330
A
100
AcDbEntity
  8
寸法線
100
AcDbLine
 10
963.5382636374115
 20
607.370118954392
 30
0.0
 11
962.1553558816115
 21
604.7078706302919
 31
0.0
  0
LINE
  5
806
330
A
100
AcDbEntity
  8
寸法線
100
AcDbLine
 10
963.5382636374115
 20
607.370118954392
 30
0.0
 11
966.2586796193117
 21
612.607216554092
 31
0.0
  0
LINE
  5
807
330
A
100
AcDbEntity
  8
寸法線
100
AcDbLine
 10
963.5382636374115
 20
607.370118954392
 30
0.0
 11
972.7634677567117
 21
625.129643480092
 31
0.0
  0
LINE
  5
808
330
A
100
AcDbEntity
  8
寸法線
100
AcDbLine
 10
975.0624949357117
 20
629.5555216547921
 30
0.0
 11
966.2586796193117
 21
612.607216554092
 31
0.0
  0
LINE
  5
809
330
A
100
AcDbEntity
  8
寸法線
100
AcDbLine
 10
975.0624949357117
 20
629.5555216547921
 30
0.0
 11
972.7634677567117
 21
625.129643480092
 31
0.0
  0
LINE
  5
80A
330
A
100
AcDbEntity
  8
寸法線
100
AcDbLine
 10
972.3368379689118
 20
602.7996900528918
 30
0.0
 11
963.0945555834115
 21
607.6006035802919
 31
0.0
  0
LINE
  5
80B
330
A
100
AcDbEntity
  8
寸法線
100
AcDbLine
 10
983.8610692673116
 20
624.9850927533921
 30
0.0
 11
974.6187868817115
 21
629.7860062807918
 31
0.0
  0
TEXT
  5
80C
330
A
100
AcDbEntity
  8
寸法線
100
AcDbText
 10
966.0582785262116
 20
616.6866516478918
 30
0.0
 40
5.9972220421
  1
25
 50
62.5503307399
100
AcDbText
  0
LINE
  5
80D
330
A
100
AcDbEntity
  8
ﾚｲﾔｰ1
370
     5
100
AcDbLine
 10
846.1884048784117
 20
432.636889993892
 30
0.0
 11
906.1884048784115
 21
432.636889993892
 31
0.0
  0
LINE
  5
80E
330
A
100
AcDbEntity
  8
ﾚｲﾔｰ1
370
     5
100
AcDbLine
 10
860.1884048784116
 20
418.6368899938918
 30
0.0
 11
920.1884048784116
 21
418.6368899938918
 31
0.0
  0
LINE
  5
80F
330
A
100
AcDbEntity
  8
ﾚｲﾔｰ1
370
     5
100
AcDbLine
 10
858.1884048784116
 20
420.6368899938921
 30
0.0
 11
918.1884048784116
 21
420.6368899938921
 31
0.0
  0
LINE
  5
810
330
A
100
AcDbEntity
  8
ﾚｲﾔｰ1
370
     5
100
AcDbLine
 10
856.1884048784117
 20
422.6368899938918
 30
0.0
 11
916.1884048784115
 21
422.6368899938918
 31
0.0
  0
LINE
  5
811
330
A
100
AcDbEntity
  8
ﾚｲﾔｰ1
370
     5
100
AcDbLine
 10
854.1884048784117
 20
424.636889993892
 30
0.0
 11
914.1884048784115
 21
424.636889993892
 31
0.0
  0
LINE
  5
812
330
A
100
AcDbEntity
  8
ﾚｲﾔｰ1
370
     5
100
AcDbLine
 10
852.1884048784116
 20
426.6368899938918
 30
0.0
 11
912.1884048784115
 21
426.6368899938918
 31
0.0
  0
LINE
  5
813
330
A
100
AcDbEntity
  8
ﾚｲﾔｰ1
370
     5
100
AcDbLine
 10
850.1884048784116
 20
428.636889993892
 30
0.0
 11
910.1884048784116
 21
428.636889993892
 31
0.0
  0
LINE
  5
814
330
A
100
AcDbEntity
  8
ﾚｲﾔｰ1
370
     5
100
AcDbLine
 10
848.1884048784117
 20
430.6368899938918
 30
0.0
 11
908.1884048784116
 21
430.6368899938918
 31
0.0
  0
MTEXT
  5
815
330
A
100
AcDbEntity
  8
ﾚｲﾔｰ1
370
     5
100
AcDbMText
 10
870.1113641733117
 20
441.591177033992
 30
0.0
 40
5.9972220421
 41
18.4230131025
 71
     1
 72
     1
  1
\W0.8;\fＭＳ ゴシック;\W1.0;ＨＬ
 73
     1
 44
1.0
1001
ACAD
1000
MTEXTBEGIN
1070
    73
1070
     1
1070
    44
1040
1.0
1070
    74
1070
     0
1000
MTEXTEND
  0
SOLID
  5
816
330
A
100
AcDbEntity
  8
寸法線
100
AcDbTrace
 10
1087.686683627912
 20
531.879482586492
 30
0.0
 11
1086.186683627912
 21
537.879482586492
 31
0.0
 12
1089.186683627912
 22
537.879482586492
 32
0.0
 13
1087.686683627912
 23
536.379482586492
 33
0.0
  0
LINE
  5
817
330
A
100
AcDbEntity
  8
寸法線
100
AcDbLine
 10
1087.686683627912
 20
531.879482586492
 30
0.0
 11
1087.686683627912
 21
534.879482586492
 31
0.0
  0
SOLID
  5
818
330
A
100
AcDbEntity
  8
寸法線
100
AcDbTrace
 10
1087.686683627912
 20
656.879482586492
 30
0.0
 11
1089.186683627912
 21
650.879482586492
 31
0.0
 12
1086.186683627912
 22
650.879482586492
 32
0.0
 13
1087.686683627912
 23
652.379482586492
 33
0.0
  0
LINE
  5
819
330
A
100
AcDbEntity
  8
寸法線
100
AcDbLine
 10
1087.686683627912
 20
656.879482586492
 30
0.0
 11
1087.686683627912
 21
653.879482586492
 31
0.0
  0
LINE
  5
81A
330
A
100
AcDbEntity
  8
寸法線
100
AcDbLine
 10
1087.686683627912
 20
656.879482586492
 30
0.0
 11
1087.686683627912
 21
571.448927719692
 31
0.0
  0
LINE
  5
81B
330
A
100
AcDbEntity
  8
寸法線
100
AcDbLine
 10
1087.686683627912
 20
656.879482586492
 30
0.0
 11
1087.686683627912
 21
617.310037453292
 31
0.0
  0
LINE
  5
81C
330
A
100
AcDbEntity
  8
寸法線
100
AcDbLine
 10
1087.686683627912
 20
531.879482586492
 30
0.0
 11
1087.686683627912
 21
571.448927719692
 31
0.0
  0
LINE
  5
81D
330
A
100
AcDbEntity
  8
寸法線
100
AcDbLine
 10
1087.686683627912
 20
531.879482586492
 30
0.0
 11
1087.686683627912
 21
617.310037453292
 31
0.0
  0
LINE
  5
81E
330
A
100
AcDbEntity
  8
寸法線
100
AcDbLine
 10
1057.341893528412
 20
656.879482586492
 30
0.0
 11
1088.186683627912
 21
656.879482586492
 31
0.0
  0
LINE
  5
81F
330
A
100
AcDbEntity
  8
寸法線
100
AcDbLine
 10
1062.270498248912
 20
531.879482586492
 30
0.0
 11
1088.186683627912
 21
531.879482586492
 31
0.0
  0
TEXT
  5
820
330
A
100
AcDbEntity
  8
寸法線
100
AcDbText
 10
1085.628350326412
 20
574.976705391492
 30
0.0
 40
5.9972220421
  1
125（壁側）
 50
90.0
100
AcDbText
  0
SOLID
  5
821
330
A
100
AcDbEntity
  8
寸法線
100
AcDbTrace
 10
1060.841893528412
 20
684.8295634580919
 30
0.0
 11
1054.841893528411
 21
683.3295634580919
 31
0.0
 12
1054.841893528411
 22
686.3295634580919
 32
0.0
 13
1056.341893528411
 23
684.8295634580919
 33
0.0
  0
LINE
  5
822
330
A
100
AcDbEntity
  8
寸法線
100
AcDbLine
 10
1060.841893528412
 20
684.8295634580919
 30
0.0
 11
1057.841893528411
 21
684.8295634580919
 31
0.0
  0
SOLID
  5
823
330
A
100
AcDbEntity
  8
寸法線
100
AcDbTrace
 10
810.8418935284117
 20
684.8295634580919
 30
0.0
 11
816.8418935284117
 21
686.3295634580919
 31
0.0
 12
816.8418935284117
 22
683.3295634580919
 32
0.0
 13
815.3418935284117
 23
684.8295634580919
 33
0.0
  0
LINE
  5
824
330
A
100
AcDbEntity
  8
寸法線
100
AcDbLine
 10
810.8418935284117
 20
684.8295634580919
 30
0.0
 11
813.8418935284116
 21
684.8295634580919
 31
0.0
  0
LINE
  5
825
330
A
100
AcDbEntity
  8
寸法線
100
AcDbLine
 10
810.8418935284117
 20
684.8295634580919
 30
0.0
 11
909.3835609898118
 21
684.8295634580919
 31
0.0
  0
LINE
  5
826
330
A
100
AcDbEntity
  8
寸法線
100
AcDbLine
 10
810.8418935284117
 20
684.8295634580919
 30
0.0
 11
962.3002260671116
 21
684.8295634580919
 31
0.0
  0
LINE
  5
827
330
A
100
AcDbEntity
  8
寸法線
100
AcDbLine
 10
1060.841893528412
 20
684.8295634580919
 30
0.0
 11
909.3835609898118
 21
684.8295634580919
 31
0.0
  0
LINE
  5
828
330
A
100
AcDbEntity
  8
寸法線
100
AcDbLine
 10
1060.841893528412
 20
684.8295634580919
 30
0.0
 11
962.3002260671116
 21
684.8295634580919
 31
0.0
  0
LINE
  5
829
330
A
100
AcDbEntity
  8
寸法線
100
AcDbLine
 10
810.8418935284117
 20
657.879482586492
 30
0.0
 11
810.8418935284117
 21
685.3295634580919
 31
0.0
  0
LINE
  5
82A
330
A
100
AcDbEntity
  8
寸法線
100
AcDbLine
 10
1060.841893528412
 20
653.379482586492
 30
0.0
 11
1060.841893528412
 21
685.3295634580919
 31
0.0
  0
TEXT
  5
82B
330
A
100
AcDbEntity
  8
寸法線
100
AcDbText
 10
912.9113386617117
 20
686.8878967595921
 30
0.0
 40
5.9972220421
  1
250（天板側）
100
AcDbText
  0
SOLID
  5
82C
330
A
100
AcDbEntity
  8
寸法線
100
AcDbTrace
 10
1016.332267530211
 20
405.003903865192
 30
0.0
 11
1010.556990609911
 21
407.2166344167921
 31
0.0
 12
1012.277719919012
 22
409.6740905496918
 32
0.0
 13
1012.646083330912
 23
407.5849978286918
 33
0.0
  0
LINE
  5
82D
330
A
100
AcDbEntity
  8
寸法線
100
AcDbLine
 10
1016.332267530211
 20
405.003903865192
 30
0.0
 11
940.4865265890116
 21
458.111663413292
 31
0.0
  0
TEXT
  5
82E
330
A
100
AcDbEntity
  8
寸法線
100
AcDbText
 10
941.9029416906115
 20
460.1345138174918
 30
0.0
 40
5.9972220421
  1
3-Φ6穴　皿Φ11
 50
325.0
100
AcDbText
  0
SOLID
  5
82F
330
A
100
AcDbEntity
  8
寸法線
100
AcDbTrace
 10
1107.170675279411
 20
371.855368752492
 30
0.0
 11
1105.670675279411
 21
377.8553687524921
 31
0.0
 12
1108.670675279411
 22
377.8553687524921
 32
0.0
 13
1107.170675279411
 23
376.355368752492
 33
0.0
  0
LINE
  5
830
330
A
100
AcDbEntity
  8
寸法線
100
AcDbLine
 10
1107.170675279411
 20
371.855368752492
 30
0.0
 11
1107.170675279411
 21
374.855368752492
 31
0.0
  0
SOLID
  5
831
330
A
100
AcDbEntity
  8
寸法線
100
AcDbTrace
 10
1107.170675279411
 20
409.8553687524919
 30
0.0
 11
1108.670675279411
 21
403.8553687524919
 31
0.0
 12
1105.670675279411
 22
403.8553687524919
 32
0.0
 13
1107.170675279411
 23
405.3553687524919
 33
0.0
  0
LINE
  5
832
330
A
100
AcDbEntity
  8
寸法線
100
AcDbLine
 10
1107.170675279411
 20
409.8553687524919
 30
0.0
 11
1107.170675279411
 21
406.855368752492
 31
0.0
  0
LINE
  5
833
330
A
100
AcDbEntity
  8
寸法線
100
AcDbLine
 10
1107.170675279411
 20
409.8553687524919
 30
0.0
 11
1107.170675279411
 21
383.7998134088921
 31
0.0
  0
LINE
  5
834
330
A
100
AcDbEntity
  8
寸法線
100
AcDbLine
 10
1107.170675279411
 20
409.8553687524919
 30
0.0
 11
1107.170675279411
 21
397.9109240960923
 31
0.0
  0
LINE
  5
835
330
A
100
AcDbEntity
  8
寸法線
100
AcDbLine
 10
1107.170675279411
 20
371.855368752492
 30
0.0
 11
1107.170675279411
 21
383.7998134088921
 31
0.0
  0
LINE
  5
836
330
A
100
AcDbEntity
  8
寸法線
100
AcDbLine
 10
1107.170675279411
 20
371.855368752492
 30
0.0
 11
1107.170675279411
 21
397.9109240960923
 31
0.0
  0
LINE
  5
837
330
A
100
AcDbEntity
  8
寸法線
100
AcDbLine
 10
1061.841893528411
 20
409.8553687524919
 30
0.0
 11
1107.670675279411
 21
409.8553687524919
 31
0.0
  0
LINE
  5
838
330
A
100
AcDbEntity
  8
寸法線
100
AcDbLine
 10
1061.841893528411
 20
371.855368752492
 30
0.0
 11
1107.670675279411
 21
371.855368752492
 31
0.0
  0
TEXT
  5
839
330
A
100
AcDbEntity
  8
寸法線
100
AcDbText
 10
1105.112341977812
 20
387.3275910806921
 30
0.0
 40
5.9972220421
  1
38
 50
90.0
100
AcDbText
  0
SOLID
  5
83A
330
A
100
AcDbEntity
  8
寸法線
100
AcDbTrace
 10
867.4160263497117
 20
511.879482586492
 30
0.0
 11
873.4160263497116
 21
513.379482586492
 31
0.0
 12
873.4160263497116
 22
510.379482586492
 32
0.0
 13
871.9160263497117
 23
511.879482586492
 33
0.0
  0
LINE
  5
83B
330
A
100
AcDbEntity
  8
寸法線
100
AcDbLine
 10
867.4160263497117
 20
511.879482586492
 30
0.0
 11
870.4160263497117
 21
511.879482586492
 31
0.0
  0
SOLID
  5
83C
330
A
100
AcDbEntity
  8
寸法線
100
AcDbTrace
 10
1055.841893528411
 20
511.879482586492
 30
0.0
 11
1049.841893528411
 21
510.379482586492
 31
0.0
 12
1049.841893528411
 22
513.379482586492
 32
0.0
 13
1051.341893528412
 23
511.879482586492
 33
0.0
  0
LINE
  5
83D
330
A
100
AcDbEntity
  8
寸法線
100
AcDbLine
 10
1055.841893528411
 20
511.879482586492
 30
0.0
 11
1052.841893528412
 21
511.879482586492
 31
0.0
  0
LINE
  5
83E
330
A
100
AcDbEntity
  8
寸法線
100
AcDbLine
 10
1055.841893528411
 20
511.879482586492
 30
0.0
 11
942.2261827441117
 21
511.879482586492
 31
0.0
  0
LINE
  5
83F
330
A
100
AcDbEntity
  8
寸法線
100
AcDbLine
 10
1055.841893528411
 20
511.879482586492
 30
0.0
 11
981.0317371341115
 21
511.879482586492
 31
0.0
  0
LINE
  5
840
330
A
100
AcDbEntity
  8
寸法線
100
AcDbLine
 10
867.4160263497117
 20
511.879482586492
 30
0.0
 11
942.2261827441117
 21
511.879482586492
 31
0.0
  0
LINE
  5
841
330
A
100
AcDbEntity
  8
寸法線
100
AcDbLine
 10
867.4160263497117
 20
511.879482586492
 30
0.0
 11
981.0317371341115
 21
511.879482586492
 31
0.0
  0
LINE
  5
842
330
A
100
AcDbEntity
  8
寸法線
100
AcDbLine
 10
1055.841893528411
 20
530.879482586492
 30
0.0
 11
1055.841893528411
 21
511.379482586492
 31
0.0
  0
LINE
  5
843
330
A
100
AcDbEntity
  8
寸法線
100
AcDbLine
 10
867.4160263497117
 20
650.879482586492
 30
0.0
 11
867.4160263497117
 21
511.379482586492
 31
0.0
  0
TEXT
  5
844
330
A
100
AcDbEntity
  8
寸法線
100
AcDbText
 10
945.7539604159116
 20
513.9378158879918
 30
0.0
 40
5.9972220421
  1
補強(190)
100
AcDbText
  0
SOLID
  5
845
330
A
100
AcDbEntity
  8
寸法線
100
AcDbTrace
 10
681.4835348398116
 20
685.706199963192
 30
0.0
 11
687.4835348398115
 21
687.206199963192
 31
0.0
 12
687.4835348398115
 22
684.206199963192
 32
0.0
 13
685.9835348398116
 23
685.706199963192
 33
0.0
  0
LINE
  5
846
330
A
100
AcDbEntity
  8
寸法線
100
AcDbLine
 10
681.4835348398116
 20
685.706199963192
 30
0.0
 11
684.4835348398118
 21
685.706199963192
 31
0.0
  0
SOLID
  5
847
330
A
100
AcDbEntity
  8
寸法線
100
AcDbTrace
 10
673.4835348398116
 20
685.706199963192
 30
0.0
 11
667.4835348398118
 21
684.206199963192
 31
0.0
 12
667.4835348398118
 22
687.206199963192
 32
0.0
 13
668.9835348398116
 23
685.706199963192
 33
0.0
  0
LINE
  5
848
330
A
100
AcDbEntity
  8
寸法線
100
AcDbLine
 10
673.4835348398116
 20
685.706199963192
 30
0.0
 11
670.4835348398116
 21
685.706199963192
 31
0.0
  0
LINE
  5
849
330
A
100
AcDbEntity
  8
寸法線
100
AcDbLine
 10
673.4835348398116
 20
685.706199963192
 30
0.0
 11
673.4835348398116
 21
685.706199963192
 31
0.0
  0
LINE
  5
84A
330
A
100
AcDbEntity
  8
寸法線
100
AcDbLine
 10
673.4835348398116
 20
685.706199963192
 30
0.0
 11
681.4835348398116
 21
685.706199963192
 31
0.0
  0
LINE
  5
84B
330
A
100
AcDbEntity
  8
寸法線
100
AcDbLine
 10
681.4835348398116
 20
685.706199963192
 30
0.0
 11
673.4835348398116
 21
685.706199963192
 31
0.0
  0
LINE
  5
84C
330
A
100
AcDbEntity
  8
寸法線
100
AcDbLine
 10
681.4835348398116
 20
685.706199963192
 30
0.0
 11
681.4835348398116
 21
685.706199963192
 31
0.0
  0
LINE
  5
84D
330
A
100
AcDbEntity
  8
寸法線
100
AcDbLine
 10
673.4835348398116
 20
625.379482586492
 30
0.0
 11
673.4835348398116
 21
686.206199963192
 31
0.0
  0
LINE
  5
84E
330
A
100
AcDbEntity
  8
寸法線
100
AcDbLine
 10
681.4835348398116
 20
657.879482586492
 30
0.0
 11
681.4835348398116
 21
686.206199963192
 31
0.0
  0
TEXT
  5
84F
330
A
100
AcDbEntity
  8
寸法線
100
AcDbText
 10
675.7196460039117
 20
687.764533264692
 30
0.0
 40
5.9972220421
  1
8
100
AcDbText
  0
SOLID
  5
850
330
A
100
AcDbEntity
  8
寸法線
100
AcDbTrace
 10
664.9835348398116
 20
672.379482586492
 30
0.0
 11
670.9835348398116
 21
673.879482586492
 31
0.0
 12
670.9835348398116
 22
670.879482586492
 32
0.0
 13
669.4835348398116
 23
672.379482586492
 33
0.0
  0
LINE
  5
851
330
A
100
AcDbEntity
  8
寸法線
100
AcDbLine
 10
664.9835348398116
 20
672.379482586492
 30
0.0
 11
667.9835348398118
 21
672.379482586492
 31
0.0
  0
SOLID
  5
852
330
A
100
AcDbEntity
  8
寸法線
100
AcDbTrace
 10
659.9835348398118
 20
672.379482586492
 30
0.0
 11
653.9835348398116
 21
670.879482586492
 31
0.0
 12
653.9835348398116
 22
673.879482586492
 32
0.0
 13
655.4835348398118
 23
672.379482586492
 33
0.0
  0
LINE
  5
853
330
A
100
AcDbEntity
  8
寸法線
100
AcDbLine
 10
659.9835348398118
 20
672.379482586492
 30
0.0
 11
656.9835348398116
 21
672.379482586492
 31
0.0
  0
LINE
  5
854
330
A
100
AcDbEntity
  8
寸法線
100
AcDbLine
 10
659.9835348398118
 20
672.379482586492
 30
0.0
 11
659.9835348398118
 21
672.379482586492
 31
0.0
  0
LINE
  5
855
330
A
100
AcDbEntity
  8
寸法線
100
AcDbLine
 10
659.9835348398118
 20
672.379482586492
 30
0.0
 11
664.9835348398116
 21
672.379482586492
 31
0.0
  0
LINE
  5
856
330
A
100
AcDbEntity
  8
寸法線
100
AcDbLine
 10
664.9835348398116
 20
672.379482586492
 30
0.0
 11
659.9835348398118
 21
672.379482586492
 31
0.0
  0
LINE
  5
857
330
A
100
AcDbEntity
  8
寸法線
100
AcDbLine
 10
664.9835348398116
 20
672.379482586492
 30
0.0
 11
664.9835348398116
 21
672.379482586492
 31
0.0
  0
LINE
  5
858
330
A
100
AcDbEntity
  8
寸法線
100
AcDbLine
 10
659.9835348398118
 20
653.379482586492
 30
0.0
 11
659.9835348398118
 21
672.879482586492
 31
0.0
  0
LINE
  5
859
330
A
100
AcDbEntity
  8
寸法線
100
AcDbLine
 10
664.9835348398116
 20
653.379482586492
 30
0.0
 11
664.9835348398116
 21
672.879482586492
 31
0.0
  0
TEXT
  5
85A
330
A
100
AcDbEntity
  8
寸法線
100
AcDbText
 10
660.7196460039117
 20
674.437815887992
 30
0.0
 40
5.9972220421
  1
5
100
AcDbText
  0
SOLID
  5
85B
330
A
100
AcDbEntity
  8
寸法線
100
AcDbTrace
 10
701.4835348398117
 20
626.879482586492
 30
0.0
 11
699.9835348398115
 21
632.879482586492
 31
0.0
 12
702.9835348398115
 22
632.879482586492
 32
0.0
 13
701.4835348398117
 23
631.379482586492
 33
0.0
  0
LINE
  5
85C
330
A
100
AcDbEntity
  8
寸法線
100
AcDbLine
 10
701.4835348398117
 20
626.879482586492
 30
0.0
 11
701.4835348398117
 21
629.879482586492
 31
0.0
  0
SOLID
  5
85D
330
A
100
AcDbEntity
  8
寸法線
100
AcDbTrace
 10
701.4835348398117
 20
656.879482586492
 30
0.0
 11
702.9835348398115
 21
650.879482586492
 31
0.0
 12
699.9835348398115
 22
650.879482586492
 32
0.0
 13
701.4835348398117
 23
652.379482586492
 33
0.0
  0
LINE
  5
85E
330
A
100
AcDbEntity
  8
寸法線
100
AcDbLine
 10
701.4835348398117
 20
656.879482586492
 30
0.0
 11
701.4835348398117
 21
653.879482586492
 31
0.0
  0
LINE
  5
85F
330
A
100
AcDbEntity
  8
寸法線
100
AcDbLine
 10
701.4835348398117
 20
656.879482586492
 30
0.0
 11
701.4835348398117
 21
634.8239272428918
 31
0.0
  0
LINE
  5
860
330
A
100
AcDbEntity
  8
寸法線
100
AcDbLine
 10
701.4835348398117
 20
656.879482586492
 30
0.0
 11
701.4835348398117
 21
648.935037930092
 31
0.0
  0
LINE
  5
861
330
A
100
AcDbEntity
  8
寸法線
100
AcDbLine
 10
701.4835348398117
 20
626.879482586492
 30
0.0
 11
701.4835348398117
 21
634.8239272428918
 31
0.0
  0
LINE
  5
862
330
A
100
AcDbEntity
  8
寸法線
100
AcDbLine
 10
701.4835348398117
 20
626.879482586492
 30
0.0
 11
701.4835348398117
 21
648.935037930092
 31
0.0
  0
LINE
  5
863
330
A
100
AcDbEntity
  8
寸法線
100
AcDbLine
 10
682.4835348398116
 20
656.879482586492
 30
0.0
 11
701.9835348398117
 21
656.879482586492
 31
0.0
  0
LINE
  5
864
330
A
100
AcDbEntity
  8
寸法線
100
AcDbLine
 10
659.9835348398118
 20
626.879482586492
 30
0.0
 11
701.9835348398117
 21
626.879482586492
 31
0.0
  0
TEXT
  5
865
330
A
100
AcDbEntity
  8
寸法線
100
AcDbText
 10
699.4252015382118
 20
638.351704914692
 30
0.0
 40
5.9972220421
  1
30
 50
90.0
100
AcDbText
  0
SOLID
  5
866
330
A
100
AcDbEntity
  8
寸法線
100
AcDbTrace
 10
701.4835348398117
 20
616.879482586492
 30
0.0
 11
702.9835348398115
 21
610.879482586492
 31
0.0
 12
699.9835348398115
 22
610.879482586492
 32
0.0
 13
701.4835348398117
 23
612.379482586492
 33
0.0
  0
LINE
  5
867
330
A
100
AcDbEntity
  8
寸法線
100
AcDbLine
 10
701.4835348398117
 20
616.879482586492
 30
0.0
 11
701.4835348398117
 21
613.879482586492
 31
0.0
  0
SOLID
  5
868
330
A
100
AcDbEntity
  8
寸法線
100
AcDbTrace
 10
701.4835348398117
 20
626.879482586492
 30
0.0
 11
699.9835348398115
 21
632.879482586492
 31
0.0
 12
702.9835348398115
 22
632.879482586492
 32
0.0
 13
701.4835348398117
 23
631.379482586492
 33
0.0
  0
LINE
  5
869
330
A
100
AcDbEntity
  8
寸法線
100
AcDbLine
 10
701.4835348398117
 20
626.879482586492
 30
0.0
 11
701.4835348398117
 21
629.879482586492
 31
0.0
  0
LINE
  5
86A
330
A
100
AcDbEntity
  8
寸法線
100
AcDbLine
 10
701.4835348398117
 20
626.879482586492
 30
0.0
 11
701.4835348398117
 21
626.879482586492
 31
0.0
  0
LINE
  5
86B
330
A
100
AcDbEntity
  8
寸法線
100
AcDbLine
 10
701.4835348398117
 20
626.879482586492
 30
0.0
 11
701.4835348398117
 21
616.879482586492
 31
0.0
  0
LINE
  5
86C
330
A
100
AcDbEntity
  8
寸法線
100
AcDbLine
 10
701.4835348398117
 20
616.879482586492
 30
0.0
 11
701.4835348398117
 21
626.879482586492
 31
0.0
  0
LINE
  5
86D
330
A
100
AcDbEntity
  8
寸法線
100
AcDbLine
 10
701.4835348398117
 20
616.879482586492
 30
0.0
 11
701.4835348398117
 21
616.879482586492
 31
0.0
  0
LINE
  5
86E
330
A
100
AcDbEntity
  8
寸法線
100
AcDbLine
 10
659.9835348398118
 20
626.879482586492
 30
0.0
 11
701.9835348398117
 21
626.879482586492
 31
0.0
  0
LINE
  5
86F
330
A
100
AcDbEntity
  8
寸法線
100
AcDbLine
 10
681.9835348398116
 20
616.879482586492
 30
0.0
 11
701.9835348398117
 21
616.879482586492
 31
0.0
  0
TEXT
  5
870
330
A
100
AcDbEntity
  8
寸法線
100
AcDbText
 10
699.4252015382118
 20
618.351704914692
 30
0.0
 40
5.9972220421
  1
10
 50
90.0
100
AcDbText
  0
SOLID
  5
871
330
A
100
AcDbEntity
  8
寸法線
100
AcDbTrace
 10
701.4835348398117
 20
541.879482586492
 30
0.0
 11
699.9835348398115
 21
547.879482586492
 31
0.0
 12
702.9835348398115
 22
547.879482586492
 32
0.0
 13
701.4835348398117
 23
546.379482586492
 33
0.0
  0
LINE
  5
872
330
A
100
AcDbEntity
  8
寸法線
100
AcDbLine
 10
701.4835348398117
 20
541.879482586492
 30
0.0
 11
701.4835348398117
 21
544.879482586492
 31
0.0
  0
SOLID
  5
873
330
A
100
AcDbEntity
  8
寸法線
100
AcDbTrace
 10
701.4835348398117
 20
616.879482586492
 30
0.0
 11
702.9835348398115
 21
610.879482586492
 31
0.0
 12
699.9835348398115
 22
610.879482586492
 32
0.0
 13
701.4835348398117
 23
612.379482586492
 33
0.0
  0
LINE
  5
874
330
A
100
AcDbEntity
  8
寸法線
100
AcDbLine
 10
701.4835348398117
 20
616.879482586492
 30
0.0
 11
701.4835348398117
 21
613.879482586492
 31
0.0
  0
LINE
  5
875
330
A
100
AcDbEntity
  8
寸法線
100
AcDbLine
 10
701.4835348398117
 20
616.879482586492
 30
0.0
 11
701.4835348398117
 21
572.3239272428918
 31
0.0
  0
LINE
  5
876
330
A
100
AcDbEntity
  8
寸法線
100
AcDbLine
 10
701.4835348398117
 20
616.879482586492
 30
0.0
 11
701.4835348398117
 21
586.435037930092
 31
0.0
  0
LINE
  5
877
330
A
100
AcDbEntity
  8
寸法線
100
AcDbLine
 10
701.4835348398117
 20
541.879482586492
 30
0.0
 11
701.4835348398117
 21
572.3239272428918
 31
0.0
  0
LINE
  5
878
330
A
100
AcDbEntity
  8
寸法線
100
AcDbLine
 10
701.4835348398117
 20
541.879482586492
 30
0.0
 11
701.4835348398117
 21
586.435037930092
 31
0.0
  0
LINE
  5
879
330
A
100
AcDbEntity
  8
寸法線
100
AcDbLine
 10
681.9835348398116
 20
616.879482586492
 30
0.0
 11
701.9835348398117
 21
616.879482586492
 31
0.0
  0
LINE
  5
87A
330
A
100
AcDbEntity
  8
寸法線
100
AcDbLine
 10
670.9835348398116
 20
541.879482586492
 30
0.0
 11
701.9835348398117
 21
541.879482586492
 31
0.0
  0
TEXT
  5
87B
330
A
100
AcDbEntity
  8
寸法線
100
AcDbText
 10
699.4252015382118
 20
575.851704914692
 30
0.0
 40
5.9972220421
  1
75
 50
90.0
100
AcDbText
  0
SOLID
  5
87C
330
A
100
AcDbEntity
  8
寸法線
100
AcDbTrace
 10
701.4835348398117
 20
531.879482586492
 30
0.0
 11
702.9835348398115
 21
525.879482586492
 31
0.0
 12
699.9835348398115
 22
525.879482586492
 32
0.0
 13
701.4835348398117
 23
527.379482586492
 33
0.0
  0
LINE
  5
87D
330
A
100
AcDbEntity
  8
寸法線
100
AcDbLine
 10
701.4835348398117
 20
531.879482586492
 30
0.0
 11
701.4835348398117
 21
528.879482586492
 31
0.0
  0
SOLID
  5
87E
330
A
100
AcDbEntity
  8
寸法線
100
AcDbTrace
 10
701.4835348398117
 20
541.879482586492
 30
0.0
 11
699.9835348398115
 21
547.879482586492
 31
0.0
 12
702.9835348398115
 22
547.879482586492
 32
0.0
 13
701.4835348398117
 23
546.379482586492
 33
0.0
  0
LINE
  5
87F
330
A
100
AcDbEntity
  8
寸法線
100
AcDbLine
 10
701.4835348398117
 20
541.879482586492
 30
0.0
 11
701.4835348398117
 21
544.879482586492
 31
0.0
  0
LINE
  5
880
330
A
100
AcDbEntity
  8
寸法線
100
AcDbLine
 10
701.4835348398117
 20
541.879482586492
 30
0.0
 11
701.4835348398117
 21
541.879482586492
 31
0.0
  0
LINE
  5
881
330
A
100
AcDbEntity
  8
寸法線
100
AcDbLine
 10
701.4835348398117
 20
541.879482586492
 30
0.0
 11
701.4835348398117
 21
531.879482586492
 31
0.0
  0
LINE
  5
882
330
A
100
AcDbEntity
  8
寸法線
100
AcDbLine
 10
701.4835348398117
 20
531.879482586492
 30
0.0
 11
701.4835348398117
 21
541.879482586492
 31
0.0
  0
LINE
  5
883
330
A
100
AcDbEntity
  8
寸法線
100
AcDbLine
 10
701.4835348398117
 20
531.879482586492
 30
0.0
 11
701.4835348398117
 21
531.879482586492
 31
0.0
  0
LINE
  5
884
330
A
100
AcDbEntity
  8
寸法線
100
AcDbLine
 10
670.9835348398116
 20
541.879482586492
 30
0.0
 11
701.9835348398117
 21
541.879482586492
 31
0.0
  0
LINE
  5
885
330
A
100
AcDbEntity
  8
寸法線
100
AcDbLine
 10
663.4835348398118
 20
531.879482586492
 30
0.0
 11
701.9835348398117
 21
531.879482586492
 31
0.0
  0
TEXT
  5
886
330
A
100
AcDbEntity
  8
寸法線
100
AcDbText
 10
699.4252015382118
 20
533.351704914692
 30
0.0
 40
5.9972220421
  1
10
 50
90.0
100
AcDbText
  0
SOLID
  5
887
330
A
100
AcDbEntity
  8
寸法線
100
AcDbTrace
 10
673.4835348398116
 20
685.706199963192
 30
0.0
 11
679.4835348398116
 21
687.206199963192
 31
0.0
 12
679.4835348398116
 22
684.206199963192
 32
0.0
 13
677.9835348398116
 23
685.706199963192
 33
0.0
  0
LINE
  5
888
330
A
100
AcDbEntity
  8
寸法線
100
AcDbLine
 10
673.4835348398116
 20
685.706199963192
 30
0.0
 11
676.4835348398118
 21
685.706199963192
 31
0.0
  0
SOLID
  5
889
330
A
100
AcDbEntity
  8
寸法線
100
AcDbTrace
 10
651.4835348398118
 20
685.706199963192
 30
0.0
 11
645.4835348398116
 21
684.206199963192
 31
0.0
 12
645.4835348398116
 22
687.206199963192
 32
0.0
 13
646.9835348398118
 23
685.706199963192
 33
0.0
  0
LINE
  5
88A
330
A
100
AcDbEntity
  8
寸法線
100
AcDbLine
 10
651.4835348398118
 20
685.706199963192
 30
0.0
 11
648.4835348398116
 21
685.706199963192
 31
0.0
  0
LINE
  5
88B
330
A
100
AcDbEntity
  8
寸法線
100
AcDbLine
 10
651.4835348398118
 20
685.706199963192
 30
0.0
 11
655.4279794962118
 21
685.706199963192
 31
0.0
  0
LINE
  5
88C
330
A
100
AcDbEntity
  8
寸法線
100
AcDbLine
 10
651.4835348398118
 20
685.706199963192
 30
0.0
 11
669.5390901834116
 21
685.706199963192
 31
0.0
  0
LINE
  5
88D
330
A
100
AcDbEntity
  8
寸法線
100
AcDbLine
 10
673.4835348398116
 20
685.706199963192
 30
0.0
 11
655.4279794962118
 21
685.706199963192
 31
0.0
  0
LINE
  5
88E
330
A
100
AcDbEntity
  8
寸法線
100
AcDbLine
 10
673.4835348398116
 20
685.706199963192
 30
0.0
 11
669.5390901834116
 21
685.706199963192
 31
0.0
  0
LINE
  5
88F
330
A
100
AcDbEntity
  8
寸法線
100
AcDbLine
 10
651.4835348398118
 20
635.379482586492
 30
0.0
 11
651.4835348398118
 21
686.206199963192
 31
0.0
  0
LINE
  5
890
330
A
100
AcDbEntity
  8
寸法線
100
AcDbLine
 10
673.4835348398116
 20
625.379482586492
 30
0.0
 11
673.4835348398116
 21
686.206199963192
 31
0.0
  0
TEXT
  5
891
330
A
100
AcDbEntity
  8
寸法線
100
AcDbText
 10
658.9557571680118
 20
687.764533264692
 30
0.0
 40
5.9972220421
  1
22
100
AcDbText
  0
SOLID
  5
892
330
A
100
AcDbEntity
  8
寸法線
100
AcDbTrace
 10
681.4835348398116
 20
698.308146804492
 30
0.0
 11
675.4835348398118
 21
696.808146804492
 31
0.0
 12
675.4835348398118
 22
699.808146804492
 32
0.0
 13
676.9835348398117
 23
698.308146804492
 33
0.0
  0
LINE
  5
893
330
A
100
AcDbEntity
  8
寸法線
100
AcDbLine
 10
681.4835348398116
 20
698.308146804492
 30
0.0
 11
678.4835348398116
 21
698.308146804492
 31
0.0
  0
SOLID
  5
894
330
A
100
AcDbEntity
  8
寸法線
100
AcDbTrace
 10
643.4835348398117
 20
698.308146804492
 30
0.0
 11
649.4835348398116
 21
699.808146804492
 31
0.0
 12
649.4835348398116
 22
696.808146804492
 32
0.0
 13
647.9835348398117
 23
698.308146804492
 33
0.0
  0
LINE
  5
895
330
A
100
AcDbEntity
  8
寸法線
100
AcDbLine
 10
643.4835348398117
 20
698.308146804492
 30
0.0
 11
646.4835348398118
 21
698.308146804492
 31
0.0
  0
LINE
  5
896
330
A
100
AcDbEntity
  8
寸法線
100
AcDbLine
 10
643.4835348398117
 20
698.308146804492
 30
0.0
 11
655.4279794962118
 21
698.308146804492
 31
0.0
  0
LINE
  5
897
330
A
100
AcDbEntity
  8
寸法線
100
AcDbLine
 10
643.4835348398117
 20
698.308146804492
 30
0.0
 11
669.5390901834116
 21
698.308146804492
 31
0.0
  0
LINE
  5
898
330
A
100
AcDbEntity
  8
寸法線
100
AcDbLine
 10
681.4835348398116
 20
698.308146804492
 30
0.0
 11
655.4279794962118
 21
698.308146804492
 31
0.0
  0
LINE
  5
899
330
A
100
AcDbEntity
  8
寸法線
100
AcDbLine
 10
681.4835348398116
 20
698.308146804492
 30
0.0
 11
669.5390901834116
 21
698.308146804492
 31
0.0
  0
LINE
  5
89A
330
A
100
AcDbEntity
  8
寸法線
100
AcDbLine
 10
643.4835348398117
 20
657.879482586492
 30
0.0
 11
643.4835348398117
 21
698.808146804492
 31
0.0
  0
LINE
  5
89B
330
A
100
AcDbEntity
  8
寸法線
100
AcDbLine
 10
681.4835348398116
 20
657.879482586492
 30
0.0
 11
681.4835348398116
 21
698.808146804492
 31
0.0
  0
TEXT
  5
89C
330
A
100
AcDbEntity
  8
寸法線
100
AcDbText
 10
658.9557571680118
 20
700.3664801059921
 30
0.0
 40
5.9972220421
  1
38
100
AcDbText
  0
SOLID
  5
89D
330
A
100
AcDbEntity
  8
寸法線
100
AcDbTrace
 10
658.5353421194116
 20
545.708552217892
 30
0.0
 11
652.7600651991116
 21
547.9212827695919
 31
0.0
 12
654.4807945082117
 22
550.378738902492
 32
0.0
 13
654.8491579201114
 23
548.2896461814921
 33
0.0
  0
LINE
  5
89E
330
A
100
AcDbEntity
  8
寸法線
100
AcDbLine
 10
658.5353421194116
 20
545.708552217892
 30
0.0
 11
580.0843032229115
 21
600.640561033592
 31
0.0
  0
TEXT
  5
89F
330
A
100
AcDbEntity
  8
寸法線
100
AcDbText
 10
581.5007183245117
 20
602.663411437792
 30
0.0
 40
5.9972220421
  1
3-Φ6穴　皿Φ11
 50
325.0
100
AcDbText
  0
SOLID
  5
8A0
330
A
100
AcDbEntity
  8
寸法線
100
AcDbTrace
 10
651.4835348398118
 20
685.706199446992
 30
0.0
 11
657.4835348398116
 21
687.2061994469921
 31
0.0
 12
657.4835348398116
 22
684.206199446992
 32
0.0
 13
655.9835348398117
 23
685.706199446992
 33
0.0
  0
LINE
  5
8A1
330
A
100
AcDbEntity
  8
寸法線
100
AcDbLine
 10
651.4835348398118
 20
685.706199446992
 30
0.0
 11
654.4835348398116
 21
685.706199446992
 31
0.0
  0
SOLID
  5
8A2
330
A
100
AcDbEntity
  8
寸法線
100
AcDbTrace
 10
643.4835348398117
 20
685.706199446992
 30
0.0
 11
637.4835348398116
 21
684.206199446992
 31
0.0
 12
637.4835348398116
 22
687.2061994469921
 32
0.0
 13
638.9835348398118
 23
685.706199446992
 33
0.0
  0
LINE
  5
8A3
330
A
100
AcDbEntity
  8
寸法線
100
AcDbLine
 10
643.4835348398117
 20
685.706199446992
 30
0.0
 11
640.4835348398116
 21
685.706199446992
 31
0.0
  0
LINE
  5
8A4
330
A
100
AcDbEntity
  8
寸法線
100
AcDbLine
 10
643.4835348398117
 20
685.706199446992
 30
0.0
 11
643.4835348398117
 21
685.706199446992
 31
0.0
  0
LINE
  5
8A5
330
A
100
AcDbEntity
  8
寸法線
100
AcDbLine
 10
643.4835348398117
 20
685.706199446992
 30
0.0
 11
651.4835348398118
 21
685.706199446992
 31
0.0
  0
LINE
  5
8A6
330
A
100
AcDbEntity
  8
寸法線
100
AcDbLine
 10
651.4835348398118
 20
685.706199446992
 30
0.0
 11
643.4835348398117
 21
685.706199446992
 31
0.0
  0
LINE
  5
8A7
330
A
100
AcDbEntity
  8
寸法線
100
AcDbLine
 10
651.4835348398118
 20
685.706199446992
 30
0.0
 11
651.4835348398118
 21
685.706199446992
 31
0.0
  0
LINE
  5
8A8
330
A
100
AcDbEntity
  8
寸法線
100
AcDbLine
 10
643.4835348398117
 20
657.879482586492
 30
0.0
 11
643.4835348398117
 21
686.206199446992
 31
0.0
  0
LINE
  5
8A9
330
A
100
AcDbEntity
  8
寸法線
100
AcDbLine
 10
651.4835348398118
 20
635.379482586492
 30
0.0
 11
651.4835348398118
 21
686.206199446992
 31
0.0
  0
TEXT
  5
8AA
330
A
100
AcDbEntity
  8
寸法線
100
AcDbText
 10
645.7196460039117
 20
687.764532748592
 30
0.0
 40
5.9972220421
  1
8
100
AcDbText
  0
SOLID
  5
8AB
330
A
100
AcDbEntity
  8
寸法線
100
AcDbTrace
 10
650.9057201885117
 20
533.238407270492
 30
0.0
 11
648.6929896368116
 21
527.463130350192
 31
0.0
 12
646.2355335040116
 22
529.1838596591921
 32
0.0
 13
648.3246262249117
 23
529.5522230711918
 33
0.0
  0
LINE
  5
8AC
330
A
100
AcDbEntity
  8
寸法線
100
AcDbLine
 10
650.9057201885117
 20
533.238407270492
 30
0.0
 11
632.0341282998116
 21
506.286980930492
 31
0.0
  0
TEXT
  5
8AD
330
A
100
AcDbEntity
  8
寸法線
100
AcDbText
 10
630.0112778956116
 20
507.7033960321919
 30
0.0
 40
5.9972220421
  1
R50
 50
55.0
100
AcDbText
  0
SOLID
  5
8AE
330
A
100
AcDbEntity
  8
寸法線
100
AcDbTrace
 10
790.0918935284115
 20
651.879482586492
 30
0.0
 11
791.5918935284117
 21
645.879482586492
 31
0.0
 12
788.5918935284117
 22
645.879482586492
 32
0.0
 13
790.0918935284115
 23
647.379482586492
 33
0.0
  0
LINE
  5
8AF
330
A
100
AcDbEntity
  8
寸法線
100
AcDbLine
 10
790.0918935284115
 20
651.879482586492
 30
0.0
 11
790.0918935284115
 21
648.879482586492
 31
0.0
  0
SOLID
  5
8B0
330
A
100
AcDbEntity
  8
寸法線
100
AcDbTrace
 10
790.0918935284115
 20
551.879482586492
 30
0.0
 11
788.5918935284117
 21
557.879482586492
 31
0.0
 12
791.5918935284117
 22
557.879482586492
 32
0.0
 13
790.0918935284115
 23
556.379482586492
 33
0.0
  0
LINE
  5
8B1
330
A
100
AcDbEntity
  8
寸法線
100
AcDbLine
 10
790.0918935284115
 20
551.879482586492
 30
0.0
 11
790.0918935284115
 21
554.879482586492
 31
0.0
  0
LINE
  5
8B2
330
A
100
AcDbEntity
  8
寸法線
100
AcDbLine
 10
790.0918935284115
 20
551.879482586492
 30
0.0
 11
790.0918935284115
 21
582.476705391492
 31
0.0
  0
LINE
  5
8B3
330
A
100
AcDbEntity
  8
寸法線
100
AcDbLine
 10
790.0918935284115
 20
551.879482586492
 30
0.0
 11
790.0918935284115
 21
621.282259781492
 31
0.0
  0
LINE
  5
8B4
330
A
100
AcDbEntity
  8
寸法線
100
AcDbLine
 10
790.0918935284115
 20
651.879482586492
 30
0.0
 11
790.0918935284115
 21
582.476705391492
 31
0.0
  0
LINE
  5
8B5
330
A
100
AcDbEntity
  8
寸法線
100
AcDbLine
 10
790.0918935284115
 20
651.879482586492
 30
0.0
 11
790.0918935284115
 21
621.282259781492
 31
0.0
  0
LINE
  5
8B6
330
A
100
AcDbEntity
  8
寸法線
100
AcDbLine
 10
1054.841893528411
 20
551.879482586492
 30
0.0
 11
789.5918935284115
 21
551.879482586492
 31
0.0
  0
LINE
  5
8B7
330
A
100
AcDbEntity
  8
寸法線
100
AcDbLine
 10
809.0918935284117
 20
651.879482586492
 30
0.0
 11
789.5918935284115
 21
651.879482586492
 31
0.0
  0
TEXT
  5
8B8
330
A
100
AcDbEntity
  8
寸法線
100
AcDbText
 10
788.0335602269117
 20
586.0044830632921
 30
0.0
 40
5.9972220421
  1
補強(100)
 50
90.0
100
AcDbText
  0
LINE
  5
8B9
330
A
100
AcDbEntity
  8
寸法線
100
AcDbLine
 10
814.8418935284116
 20
651.879482586492
 30
0.0
 11
1029.485568381211
 21
651.879482586492
 31
0.0
  0
LINE
  5
8BA
330
A
100
AcDbEntity
  8
寸法線
100
AcDbLine
 10
1055.841893528411
 20
535.879482586492
 30
0.0
 11
1055.841893528411
 21
625.523157439192
 31
0.0
  0
ARC
  5
8BB
330
A
100
AcDbEntity
  8
寸法線
100
AcDbCircle
 10
1055.841893528411
 20
651.879482586492
 30
0.0
 40
30.3563251473
100
AcDbArc
 50
180.0
 51
200.1398858913
  0
ARC
  5
8BC
330
A
100
AcDbEntity
  8
寸法線
100
AcDbCircle
 10
1055.841893528411
 20
651.879482586492
 30
0.0
 40
30.3563251473
100
AcDbArc
 50
253.2247116199001
 51
270.0
  0
SOLID
  5
8BD
330
A
100
AcDbEntity
  8
寸法線
100
AcDbTrace
 10
1025.485568381211
 20
651.879482586492
 30
0.0
 11
1026.985568381211
 21
645.879482586492
 31
0.0
 12
1023.985568381212
 22
645.879482586492
 32
0.0
 13
1025.485568381211
 23
647.379482586492
 33
0.0
  0
SOLID
  5
8BE
330
A
100
AcDbEntity
  8
寸法線
100
AcDbTrace
 10
1055.841893528411
 20
621.5231574391921
 30
0.0
 11
1049.841893528411
 21
620.0231574391921
 31
0.0
 12
1049.841893528411
 22
623.0231574391921
 32
0.0
 13
1051.341893528412
 23
621.5231574391921
 33
0.0
  0
ARC
  5
8BF
330
A
100
AcDbEntity
  8
寸法線
100
AcDbCircle
 10
1055.841893528411
 20
651.879482586492
 30
0.0
 40
30.3563251473
100
AcDbArc
 50
251.463944267
 51
270.0
  0
ARC
  5
8C0
330
A
100
AcDbEntity
  8
寸法線
100
AcDbCircle
 10
1055.841893528411
 20
651.879482586492
 30
0.0
 40
30.3563251473
100
AcDbArc
 50
180.0
 51
198.536055733
  0
TEXT
  5
8C1
330
A
100
AcDbEntity
  8
寸法線
100
AcDbText
 10
1033.344321869011
 20
635.7337263079917
 30
0.0
 40
5.9972220421
  1
90%%d
 50
316.6822987556
100
AcDbText
  0
SOLID
  5
8C2
330
A
100
AcDbEntity
  8
寸法線
100
AcDbTrace
 10
981.2082680073116
 20
598.1258220527919
 30
0.0
 11
979.3336969119115
 21
592.232098000192
 31
0.0
 12
976.7807174866115
 22
593.807628404292
 32
0.0
 13
978.8449724013117
 23
594.2963529148919
 33
0.0
  0
LINE
  5
8C3
330
A
100
AcDbEntity
  8
寸法線
100
AcDbLine
 10
981.2082680073116
 20
598.1258220527919
 30
0.0
 11
961.8805694810117
 21
566.8073425432918
 31
0.0
  0
TEXT
  5
8C4
330
A
100
AcDbEntity
  8
寸法線
100
AcDbText
 10
959.7790892580118
 20
568.1042374387921
 30
0.0
 40
5.9972220421
  1
(R700)
 50
58.3198538047
100
AcDbText
  0
SOLID
  5
8C5
330
A
100
AcDbEntity
  8
寸法線
100
AcDbTrace
 10
1060.841893528412
 20
347.967334856392
 30
0.0
 11
1054.841893528411
 21
346.467334856392
 31
0.0
 12
1054.841893528411
 22
349.467334856392
 32
0.0
 13
1056.341893528411
 23
347.967334856392
 33
0.0
  0
LINE
  5
8C6
330
A
100
AcDbEntity
  8
寸法線
100
AcDbLine
 10
1060.841893528412
 20
347.967334856392
 30
0.0
 11
1057.841893528411
 21
347.967334856392
 31
0.0
  0
SOLID
  5
8C7
330
A
100
AcDbEntity
  8
寸法線
100
AcDbTrace
 10
1020.841893528412
 20
347.967334856392
 30
0.0
 11
1026.841893528412
 21
349.467334856392
 31
0.0
 12
1026.841893528412
 22
346.467334856392
 32
0.0
 13
1025.341893528411
 23
347.967334856392
 33
0.0
  0
LINE
  5
8C8
330
A
100
AcDbEntity
  8
寸法線
100
AcDbLine
 10
1020.841893528412
 20
347.967334856392
 30
0.0
 11
1023.841893528411
 21
347.967334856392
 31
0.0
  0
LINE
  5
8C9
330
A
100
AcDbEntity
  8
寸法線
100
AcDbLine
 10
1020.841893528412
 20
347.967334856392
 30
0.0
 11
1033.786338184812
 21
347.967334856392
 31
0.0
  0
LINE
  5
8CA
330
A
100
AcDbEntity
  8
寸法線
100
AcDbLine
 10
1020.841893528412
 20
347.967334856392
 30
0.0
 11
1047.897448872111
 21
347.967334856392
 31
0.0
  0
LINE
  5
8CB
330
A
100
AcDbEntity
  8
寸法線
100
AcDbLine
 10
1060.841893528412
 20
347.967334856392
 30
0.0
 11
1033.786338184812
 21
347.967334856392
 31
0.0
  0
LINE
  5
8CC
330
A
100
AcDbEntity
  8
寸法線
100
AcDbLine
 10
1060.841893528412
 20
347.967334856392
 30
0.0
 11
1047.897448872111
 21
347.967334856392
 31
0.0
  0
LINE
  5
8CD
330
A
100
AcDbEntity
  8
寸法線
100
AcDbLine
 10
1020.841893528412
 20
393.355368752492
 30
0.0
 11
1020.841893528412
 21
347.467334856392
 31
0.0
  0
LINE
  5
8CE
330
A
100
AcDbEntity
  8
寸法線
100
AcDbLine
 10
1060.841893528412
 20
370.855368752492
 30
0.0
 11
1060.841893528412
 21
347.467334856392
 31
0.0
  0
TEXT
  5
8CF
330
A
100
AcDbEntity
  8
寸法線
100
AcDbText
 10
1037.314115856612
 20
350.0256681578922
 30
0.0
 40
5.9972220421
  1
40
100
AcDbText
  0
SOLID
  5
8D0
330
A
100
AcDbEntity
  8
寸法線
100
AcDbTrace
 10
925.8418935284115
 20
347.967334856392
 30
0.0
 11
919.8418935284115
 21
346.467334856392
 31
0.0
 12
919.8418935284115
 22
349.467334856392
 32
0.0
 13
921.3418935284115
 23
347.967334856392
 33
0.0
  0
LINE
  5
8D1
330
A
100
AcDbEntity
  8
寸法線
100
AcDbLine
 10
925.8418935284115
 20
347.967334856392
 30
0.0
 11
922.8418935284116
 21
347.967334856392
 31
0.0
  0
SOLID
  5
8D2
330
A
100
AcDbEntity
  8
寸法線
100
AcDbTrace
 10
830.8418935284116
 20
347.967334856392
 30
0.0
 11
836.8418935284115
 21
349.467334856392
 31
0.0
 12
836.8418935284115
 22
346.467334856392
 32
0.0
 13
835.3418935284116
 23
347.967334856392
 33
0.0
  0
LINE
  5
8D3
330
A
100
AcDbEntity
  8
寸法線
100
AcDbLine
 10
830.8418935284116
 20
347.967334856392
 30
0.0
 11
833.8418935284117
 21
347.967334856392
 31
0.0
  0
LINE
  5
8D4
330
A
100
AcDbEntity
  8
寸法線
100
AcDbLine
 10
830.8418935284116
 20
347.967334856392
 30
0.0
 11
871.2863381848118
 21
347.967334856392
 31
0.0
  0
LINE
  5
8D5
330
A
100
AcDbEntity
  8
寸法線
100
AcDbLine
 10
830.8418935284116
 20
347.967334856392
 30
0.0
 11
885.3974488721117
 21
347.967334856392
 31
0.0
  0
LINE
  5
8D6
330
A
100
AcDbEntity
  8
寸法線
100
AcDbLine
 10
925.8418935284115
 20
347.967334856392
 30
0.0
 11
871.2863381848118
 21
347.967334856392
 31
0.0
  0
LINE
  5
8D7
330
A
100
AcDbEntity
  8
寸法線
100
AcDbLine
 10
925.8418935284115
 20
347.967334856392
 30
0.0
 11
885.3974488721117
 21
347.967334856392
 31
0.0
  0
LINE
  5
8D8
330
A
100
AcDbEntity
  8
寸法線
100
AcDbLine
 10
830.8418935284116
 20
382.355368752492
 30
0.0
 11
830.8418935284116
 21
347.467334856392
 31
0.0
  0
LINE
  5
8D9
330
A
100
AcDbEntity
  8
寸法線
100
AcDbLine
 10
925.8418935284115
 20
371.3553687524921
 30
0.0
 11
925.8418935284115
 21
347.467334856392
 31
0.0
  0
TEXT
  5
8DA
330
A
100
AcDbEntity
  8
寸法線
100
AcDbText
 10
874.8141158566118
 20
350.0256681578922
 30
0.0
 40
5.9972220421
  1
95
100
AcDbText
  0
SOLID
  5
8DB
330
A
100
AcDbEntity
  8
寸法線
100
AcDbTrace
 10
1020.841893528412
 20
347.967334856392
 30
0.0
 11
1014.841893528411
 21
346.467334856392
 31
0.0
 12
1014.841893528411
 22
349.467334856392
 32
0.0
 13
1016.341893528411
 23
347.967334856392
 33
0.0
  0
LINE
  5
8DC
330
A
100
AcDbEntity
  8
寸法線
100
AcDbLine
 10
1020.841893528412
 20
347.967334856392
 30
0.0
 11
1017.841893528411
 21
347.967334856392
 31
0.0
  0
SOLID
  5
8DD
330
A
100
AcDbEntity
  8
寸法線
100
AcDbTrace
 10
925.8418935284115
 20
347.967334856392
 30
0.0
 11
931.8418935284116
 21
349.467334856392
 31
0.0
 12
931.8418935284116
 22
346.467334856392
 32
0.0
 13
930.3418935284115
 23
347.967334856392
 33
0.0
  0
LINE
  5
8DE
330
A
100
AcDbEntity
  8
寸法線
100
AcDbLine
 10
925.8418935284115
 20
347.967334856392
 30
0.0
 11
928.8418935284115
 21
347.967334856392
 31
0.0
  0
LINE
  5
8DF
330
A
100
AcDbEntity
  8
寸法線
100
AcDbLine
 10
925.8418935284115
 20
347.967334856392
 30
0.0
 11
966.2863381848115
 21
347.967334856392
 31
0.0
  0
LINE
  5
8E0
330
A
100
AcDbEntity
  8
寸法線
100
AcDbLine
 10
925.8418935284115
 20
347.967334856392
 30
0.0
 11
980.3974488721117
 21
347.967334856392
 31
0.0
  0
LINE
  5
8E1
330
A
100
AcDbEntity
  8
寸法線
100
AcDbLine
 10
1020.841893528412
 20
347.967334856392
 30
0.0
 11
966.2863381848115
 21
347.967334856392
 31
0.0
  0
LINE
  5
8E2
330
A
100
AcDbEntity
  8
寸法線
100
AcDbLine
 10
1020.841893528412
 20
347.967334856392
 30
0.0
 11
980.3974488721117
 21
347.967334856392
 31
0.0
  0
LINE
  5
8E3
330
A
100
AcDbEntity
  8
寸法線
100
AcDbLine
 10
925.8418935284115
 20
371.3553687524921
 30
0.0
 11
925.8418935284115
 21
347.467334856392
 31
0.0
  0
LINE
  5
8E4
330
A
100
AcDbEntity
  8
寸法線
100
AcDbLine
 10
1020.841893528412
 20
393.355368752492
 30
0.0
 11
1020.841893528412
 21
347.467334856392
 31
0.0
  0
TEXT
  5
8E5
330
A
100
AcDbEntity
  8
寸法線
100
AcDbText
 10
969.8141158566118
 20
350.0256681578922
 30
0.0
 40
5.9972220421
  1
95
100
AcDbText
  0
SOLID
  5
8E6
330
A
100
AcDbEntity
  8
寸法線
100
AcDbTrace
 10
830.8418935284116
 20
347.967334856392
 30
0.0
 11
836.8418935284115
 21
349.467334856392
 31
0.0
 12
836.8418935284115
 22
346.467334856392
 32
0.0
 13
835.3418935284116
 23
347.967334856392
 33
0.0
  0
LINE
  5
8E7
330
A
100
AcDbEntity
  8
寸法線
100
AcDbLine
 10
830.8418935284116
 20
347.967334856392
 30
0.0
 11
833.8418935284117
 21
347.967334856392
 31
0.0
  0
SOLID
  5
8E8
330
A
100
AcDbEntity
  8
寸法線
100
AcDbTrace
 10
810.8418935284117
 20
347.967334856392
 30
0.0
 11
804.8418935284114
 21
346.467334856392
 31
0.0
 12
804.8418935284114
 22
349.467334856392
 32
0.0
 13
806.3418935284117
 23
347.967334856392
 33
0.0
  0
LINE
  5
8E9
330
A
100
AcDbEntity
  8
寸法線
100
AcDbLine
 10
810.8418935284117
 20
347.967334856392
 30
0.0
 11
807.8418935284116
 21
347.967334856392
 31
0.0
  0
LINE
  5
8EA
330
A
100
AcDbEntity
  8
寸法線
100
AcDbLine
 10
810.8418935284117
 20
347.967334856392
 30
0.0
 11
813.7863381848116
 21
347.967334856392
 31
0.0
  0
LINE
  5
8EB
330
A
100
AcDbEntity
  8
寸法線
100
AcDbLine
 10
810.8418935284117
 20
347.967334856392
 30
0.0
 11
827.8974488721116
 21
347.967334856392
 31
0.0
  0
LINE
  5
8EC
330
A
100
AcDbEntity
  8
寸法線
100
AcDbLine
 10
830.8418935284116
 20
347.967334856392
 30
0.0
 11
813.7863381848116
 21
347.967334856392
 31
0.0
  0
LINE
  5
8ED
330
A
100
AcDbEntity
  8
寸法線
100
AcDbLine
 10
830.8418935284116
 20
347.967334856392
 30
0.0
 11
827.8974488721116
 21
347.967334856392
 31
0.0
  0
LINE
  5
8EE
330
A
100
AcDbEntity
  8
寸法線
100
AcDbLine
 10
810.8418935284117
 20
389.8553687524922
 30
0.0
 11
810.8418935284117
 21
347.467334856392
 31
0.0
  0
LINE
  5
8EF
330
A
100
AcDbEntity
  8
寸法線
100
AcDbLine
 10
830.8418935284116
 20
382.355368752492
 30
0.0
 11
830.8418935284116
 21
347.467334856392
 31
0.0
  0
TEXT
  5
8F0
330
A
100
AcDbEntity
  8
寸法線
100
AcDbText
 10
817.3141158566117
 20
350.0256681578922
 30
0.0
 40
5.9972220421
  1
20
100
AcDbText
  0
SOLID
  5
8F1
330
A
100
AcDbEntity
  8
寸法線
100
AcDbTrace
 10
812.5456022140117
 20
403.7963210075918
 30
0.0
 11
806.5994497913116
 21
405.497282901892
 31
0.0
 12
808.0994497913115
 22
408.095359113292
 32
0.0
 13
808.6484878970116
 23
406.0463210075918
 33
0.0
  0
LINE
  5
8F2
330
A
100
AcDbEntity
  8
寸法線
100
AcDbLine
 10
812.5456022140117
 20
403.7963210075918
 30
0.0
 11
780.7731956910116
 21
422.140128466492
 31
0.0
  0
TEXT
  5
8F3
330
A
100
AcDbEntity
  8
寸法線
100
AcDbText
 10
782.0079178761117
 20
424.2787300243921
 30
0.0
 40
5.9972220421
  1
R50
 50
330.0
100
AcDbText
  0
LINE
  5
8F4
330
A
100
AcDbEntity
  8
Layer1
 62
     5
370
    18
100
AcDbLine
 10
810.8418935284117
 20
656.879482586492
 30
0.0
 11
1050.841893528412
 21
656.879482586492
 31
0.0
  0
LINE
  5
8F5
330
A
100
AcDbEntity
  8
Layer1
 62
     5
370
    18
100
AcDbLine
 10
810.8418935284117
 20
651.879482586492
 30
0.0
 11
1050.841893528412
 21
651.879482586492
 31
0.0
  0
CIRCLE
  5
8F6
330
A
100
AcDbEntity
  8
Layer1
 62
     5
370
    18
100
AcDbCircle
 10
830.8418935284116
 20
390.855368752492
 30
0.0
 40
5.5
  0
CIRCLE
  5
8F7
330
A
100
AcDbEntity
  8
Layer1
 62
     5
370
    18
100
AcDbCircle
 10
830.8418935284116
 20
390.855368752492
 30
0.0
 40
3.0
  0
CIRCLE
  5
8F8
330
A
100
AcDbEntity
  8
Layer1
 62
     5
370
    18
100
AcDbCircle
 10
651.4835348398118
 20
626.879482586492
 30
0.0
 40
5.5
  0
CIRCLE
  5
8F9
330
A
100
AcDbEntity
  8
Layer1
 62
     5
370
    18
100
AcDbCircle
 10
925.8418935284115
 20
379.8553687524921
 30
0.0
 40
5.5
  0
LINE
  5
8FA
330
A
100
AcDbEntity
  8
Layer1
  6
DASHDOT
 62
     3
370
    18
100
AcDbLine
 10
1013.341893528411
 20
401.8553687524919
 30
0.0
 11
1028.341893528411
 21
401.8553687524919
 31
0.0
  0
LINE
  5
8FB
330
A
100
AcDbEntity
  8
Layer1
  6
DASHDOT
 62
     3
370
    18
100
AcDbLine
 10
1020.841893528412
 20
409.3553687524919
 30
0.0
 11
1020.841893528412
 21
394.3553687524921
 31
0.0
  0
LINE
  5
8FC
330
A
100
AcDbEntity
  8
Layer1
  6
DASHDOT
 62
     3
370
    18
100
AcDbLine
 10
918.3418935284116
 20
379.8553687524921
 30
0.0
 11
933.3418935284115
 21
379.8553687524921
 31
0.0
  0
LINE
  5
8FD
330
A
100
AcDbEntity
  8
Layer1
 62
     5
370
    18
100
AcDbLine
 10
1055.841893528411
 20
388.3553687524921
 30
0.0
 11
867.4160263497117
 21
388.3553687524921
 31
0.0
  0
LINE
  5
8FE
330
A
100
AcDbEntity
  8
Layer1
 62
     5
370
    18
100
AcDbLine
 10
867.4160263497117
 20
393.355368752492
 30
0.0
 11
867.4160263497117
 21
388.3553687524921
 31
0.0
  0
LINE
  5
8FF
330
A
100
AcDbEntity
  8
Layer1
 62
     5
370
    18
100
AcDbLine
 10
1055.841893528411
 20
393.355368752492
 30
0.0
 11
867.4160263497117
 21
393.355368752492
 31
0.0
  0
LINE
  5
900
330
A
100
AcDbEntity
  8
Layer1
 62
     5
370
    18
100
AcDbLine
 10
1055.841893528411
 20
531.879482586492
 30
0.0
 11
1060.841893528412
 21
531.879482586492
 31
0.0
  0
LINE
  5
901
330
A
100
AcDbEntity
  8
Layer1
 62
     5
370
    18
100
AcDbLine
 10
1060.841893528412
 20
409.8553687524919
 30
0.0
 11
1060.841893528412
 21
371.855368752492
 31
0.0
  0
LINE
  5
902
330
A
100
AcDbEntity
  8
Layer1
 62
     5
370
    18
100
AcDbLine
 10
1055.841893528411
 20
409.8553687524919
 30
0.0
 11
1055.841893528411
 21
371.855368752492
 31
0.0
  0
LINE
  5
903
330
A
100
AcDbEntity
  8
Layer1
 62
     5
370
    18
100
AcDbLine
 10
1060.841893528412
 20
646.879482586492
 30
0.0
 11
1060.841893528412
 21
531.879482586492
 31
0.0
  0
ARC
  5
904
330
A
100
AcDbEntity
  8
Layer1
 62
     5
370
    18
100
AcDbCircle
 10
1050.841893528412
 20
646.879482586492
 30
0.0
 40
10.0
100
AcDbArc
 50
0.0
 51
90.0
  0
LINE
  5
905
330
A
100
AcDbEntity
  8
Layer1
 62
     5
370
    18
100
AcDbLine
 10
1055.841893528411
 20
646.879482586492
 30
0.0
 11
1055.841893528411
 21
531.879482586492
 31
0.0
  0
ARC
  5
906
330
A
100
AcDbEntity
  8
Layer1
 62
     5
370
    18
100
AcDbCircle
 10
1050.841893528412
 20
646.879482586492
 30
0.0
 40
5.0
100
AcDbArc
 50
0.0
 51
90.0
  0
CIRCLE
  5
907
330
A
100
AcDbEntity
  8
Layer1
 62
     5
370
    18
100
AcDbCircle
 10
925.8418935284115
 20
379.8553687524921
 30
0.0
 40
3.0
  0
CIRCLE
  5
908
330
A
100
AcDbEntity
  8
Layer1
 62
     5
370
    18
100
AcDbCircle
 10
1020.841893528412
 20
401.8553687524919
 30
0.0
 40
5.5
  0
CIRCLE
  5
909
330
A
100
AcDbEntity
  8
Layer1
 62
     5
370
    18
100
AcDbCircle
 10
1020.841893528412
 20
401.8553687524919
 30
0.0
 40
3.0
  0
LINE
  5
90A
330
A
100
AcDbEntity
  8
Layer1
  6
DASHDOT
 62
     3
370
    18
100
AcDbLine
 10
1065.841893528411
 20
390.855368752492
 30
0.0
 11
805.8418935284116
 21
390.855368752492
 31
0.0
  0
LINE
  5
90B
330
A
100
AcDbEntity
  8
Layer1
  6
DASHDOT
 62
     3
370
    18
100
AcDbLine
 10
925.8418935284115
 20
387.355368752492
 30
0.0
 11
925.8418935284115
 21
372.355368752492
 31
0.0
  0
LINE
  5
90C
330
A
100
AcDbEntity
  8
Layer1
  6
DASHDOT
 62
     3
370
    18
100
AcDbLine
 10
643.9835348398116
 20
626.879482586492
 30
0.0
 11
658.9835348398118
 21
626.879482586492
 31
0.0
  0
LINE
  5
90D
330
A
100
AcDbEntity
  8
Layer1
  6
DASHDOT
 62
     3
370
    18
100
AcDbLine
 10
823.3418935284117
 20
390.855368752492
 30
0.0
 11
838.3418935284117
 21
390.855368752492
 31
0.0
  0
LINE
  5
90E
330
A
100
AcDbEntity
  8
Layer1
  6
DASHDOT
 62
     3
370
    18
100
AcDbLine
 10
830.8418935284116
 20
398.3553687524922
 30
0.0
 11
830.8418935284116
 21
383.355368752492
 31
0.0
  0
LINE
  5
90F
330
A
100
AcDbEntity
  8
Layer1
 62
     5
370
    18
100
AcDbLine
 10
681.4835348398116
 20
656.879482586492
 30
0.0
 11
643.4835348398117
 21
656.879482586492
 31
0.0
  0
ARC
  5
910
330
A
100
AcDbEntity
  8
Layer1
 62
     5
370
    18
100
AcDbCircle
 10
662.4835348398116
 20
581.879482586492
 30
0.0
 40
50.0
100
AcDbArc
 50
247.6663173422
 51
292.3336826578
  0
LINE
  5
911
330
A
100
AcDbEntity
  8
Layer1
 62
     5
370
    18
100
AcDbLine
 10
643.4835348398117
 20
656.879482586492
 30
0.0
 11
643.4835348398117
 21
535.6301582670919
 31
0.0
  0
ARC
  5
912
330
A
100
AcDbEntity
  8
Layer1
 62
     5
370
    18
100
AcDbCircle
 10
860.8418935284117
 20
390.855368752492
 30
0.0
 40
50.0
100
AcDbArc
 50
157.6663173422
 51
202.3336826578
  0
LINE
  5
913
330
A
100
AcDbEntity
  8
Layer1
 62
     5
370
    18
100
AcDbLine
 10
681.4835348398116
 20
651.879482586492
 30
0.0
 11
643.4835348398117
 21
651.879482586492
 31
0.0
  0
LINE
  5
914
330
A
100
AcDbEntity
  8
Layer1
 62
     5
370
    18
100
AcDbLine
 10
1060.841893528412
 20
371.855368752492
 30
0.0
 11
814.5925692091116
 21
371.855368752492
 31
0.0
  0
LINE
  5
915
330
A
100
AcDbEntity
  8
Layer1
 62
     5
370
    18
100
AcDbLine
 10
1060.841893528412
 20
409.8553687524919
 30
0.0
 11
814.5925692091116
 21
409.8553687524919
 31
0.0
  0
LINE
  5
916
330
A
100
AcDbEntity
  8
Layer1
 62
     5
370
    18
100
AcDbLine
 10
664.9835348398116
 20
651.879482586492
 30
0.0
 11
664.9835348398116
 21
551.879482586492
 31
0.0
  0
LINE
  5
917
330
A
100
AcDbEntity
  8
Layer1
 62
     5
370
    18
100
AcDbLine
 10
659.9835348398118
 20
651.879482586492
 30
0.0
 11
659.9835348398118
 21
551.879482586492
 31
0.0
  0
LINE
  5
918
330
A
100
AcDbEntity
  8
Layer1
 62
     5
370
    18
100
AcDbLine
 10
664.9835348398116
 20
551.879482586492
 30
0.0
 11
659.9835348398118
 21
551.879482586492
 31
0.0
  0
LINE
  5
919
330
A
100
AcDbEntity
  8
Layer1
 62
     5
370
    18
100
AcDbLine
 10
681.4835348398116
 20
656.879482586492
 30
0.0
 11
681.4835348398116
 21
535.6301582670919
 31
0.0
  0
LINE
  5
91A
330
A
100
AcDbEntity
  8
Layer1
 62
     5
370
    18
100
AcDbLine
 10
810.8418935284117
 20
656.879482586492
 30
0.0
 11
810.8418935284117
 21
651.879482586492
 31
0.0
  0
CIRCLE
  5
91B
330
A
100
AcDbEntity
  8
Layer1
 62
     5
370
    18
100
AcDbCircle
 10
651.4835348398118
 20
626.879482586492
 30
0.0
 40
3.0
  0
CIRCLE
  5
91C
330
A
100
AcDbEntity
  8
Layer1
 62
     5
370
    18
100
AcDbCircle
 10
662.4835348398116
 20
541.879482586492
 30
0.0
 40
5.5
  0
CIRCLE
  5
91D
330
A
100
AcDbEntity
  8
Layer1
 62
     5
370
    18
100
AcDbCircle
 10
662.4835348398116
 20
541.879482586492
 30
0.0
 40
3.0
  0
CIRCLE
  5
91E
330
A
100
AcDbEntity
  8
Layer1
 62
     5
370
    18
100
AcDbCircle
 10
673.4835348398116
 20
616.879482586492
 30
0.0
 40
5.5
  0
CIRCLE
  5
91F
330
A
100
AcDbEntity
  8
Layer1
 62
     5
370
    18
100
AcDbCircle
 10
673.4835348398116
 20
616.879482586492
 30
0.0
 40
3.0
  0
LINE
  5
920
330
A
100
AcDbEntity
  8
Layer1
  6
DASHDOT
 62
     3
370
    18
100
AcDbLine
 10
662.4835348398116
 20
661.879482586492
 30
0.0
 11
662.4835348398116
 21
526.879482586492
 31
0.0
  0
LINE
  5
921
330
A
100
AcDbEntity
  8
Layer1
  6
DASHDOT
 62
     3
370
    18
100
AcDbLine
 10
665.9835348398116
 20
616.879482586492
 30
0.0
 11
680.9835348398117
 21
616.879482586492
 31
0.0
  0
LINE
  5
922
330
A
100
AcDbEntity
  8
Layer1
  6
DASHDOT
 62
     3
370
    18
100
AcDbLine
 10
673.4835348398116
 20
624.379482586492
 30
0.0
 11
673.4835348398116
 21
609.379482586492
 31
0.0
  0
LINE
  5
923
330
A
100
AcDbEntity
  8
Layer1
  6
DASHDOT
 62
     3
370
    18
100
AcDbLine
 10
654.9835348398118
 20
541.879482586492
 30
0.0
 11
669.9835348398116
 21
541.879482586492
 31
0.0
  0
LINE
  5
924
330
A
100
AcDbEntity
  8
Layer1
  6
DASHDOT
 62
     3
370
    18
100
AcDbLine
 10
662.4835348398116
 20
549.379482586492
 30
0.0
 11
662.4835348398116
 21
534.379482586492
 31
0.0
  0
LINE
  5
925
330
A
100
AcDbEntity
  8
Layer1
  6
DASHDOT
 62
     3
370
    18
100
AcDbLine
 10
651.4835348398118
 20
634.379482586492
 30
0.0
 11
651.4835348398118
 21
619.379482586492
 31
0.0
  0
ENDSEC
  0
SECTION
  2
OBJECTS
  0
DICTIONARY
  5
19
330
0
100
AcDbDictionary
281
     1
  3
ACAD_COLOR
350
27B
  3
ACAD_GROUP
350
1A
  3
ACAD_LAYOUT
350
1E
  3
ACAD_MATERIAL
350
27A
  3
ACAD_MLINESTYLE
350
1B
  3
ACAD_PLOTSETTINGS
350
22
  3
ACAD_PLOTSTYLENAME
350
1F
  3
ACAD_WIPEOUT_VARS
350
23
  3
ACDBHEADERROUNDTRIPXREC
350
958
  3
AcDbVariableDictionary
350
936
  3
ASE_INDEX_DICTIONARY
350
934
  0
DICTIONARY
  5
28E
330
2
100
AcDbDictionary
280
     1
281
     1
  3
ACAD_LAYERSTATES
360
28F
  0
DICTIONARY
  5
27B
102
{ACAD_REACTORS
330
19
102
}
330
19
100
AcDbDictionary
281
     1
  0
DICTIONARY
  5
1A
102
{ACAD_REACTORS
330
19
102
}
330
19
100
AcDbDictionary
281
     1
  0
DICTIONARY
  5
1E
102
{ACAD_REACTORS
330
19
102
}
330
19
100
AcDbDictionary
281
     1
  3
Layout1
350
21
  3
Model
350
20
  0
DICTIONARY
  5
27A
102
{ACAD_REACTORS
330
19
102
}
330
19
100
AcDbDictionary
281
     1
  0
DICTIONARY
  5
1B
102
{ACAD_REACTORS
330
19
102
}
330
19
100
AcDbDictionary
281
     1
  3
Standard
350
1C
  0
DICTIONARY
  5
22
102
{ACAD_REACTORS
330
19
102
}
330
19
100
AcDbDictionary
281
     1
  0
ACDBDICTIONARYWDFLT
  5
1F
102
{ACAD_REACTORS
330
19
102
}
330
19
100
AcDbDictionary
281
     1
  3
Normal
350
1D
100
AcDbDictionaryWithDefault
340
1D
  0
WIPEOUTVARIABLES
  5
23
330
19
100
AcDbWipeoutVariables
 70
     1
  0
DICTIONARY
  5
958
102
{ACAD_REACTORS
330
19
102
}
330
19
100
AcDbDictionary
281
     1
  3
COLORDICT
350
95A
  3
MATERIALDICT
350
959
  0
DICTIONARY
  5
936
102
{ACAD_REACTORS
330
19
102
}
330
19
100
AcDbDictionary
281
     1
  3
DIMASSOC
350
937
  3
PROJECTNAME
350
938
  0
DICTIONARY
  5
934
102
{ACAD_REACTORS
330
19
102
}
330
19
100
AcDbDictionary
281
     1
  3
ASEBlockHierarchyIndexRecord
350
935
1001
DCO15
1040
1776759166.109
  0
DICTIONARY
  5
28F
102
{ACAD_REACTORS
330
28E
102
}
330
28E
100
AcDbDictionary
281
     1
  0
LAYOUT
  5
21
102
{ACAD_XDICTIONARY
360
95D
102
}
102
{ACAD_REACTORS
330
1E
102
}
330
1E
100
AcDbPlotSettings
  1

  2

  4

  6

 40
0.0
 41
0.0
 42
0.0
 43
0.0
 44
0.0
 45
0.0
 46
0.0
 47
0.0
 48
0.0
 49
0.0
140
0.0
141
0.0
142
1.0
143
1.0
 70
     0
 72
     0
 73
     0
 74
     0
  7

 75
     0
147
1.0
148
0.0
149
0.0
100
AcDbLayout
  1
Layout1
 70
     0
 71
     1
 10
0.0
 20
0.0
 11
12.0
 21
9.0
 12
0.0
 22
0.0
 32
0.0
 14
1.000000000000000E+20
 24
1.000000000000000E+20
 34
1.000000000000000E+20
 15
-1.000000000000000E+20
 25
-1.000000000000000E+20
 35
-1.000000000000000E+20
146
0.0
 13
0.0
 23
0.0
 33
0.0
 16
1.0
 26
0.0
 36
0.0
 17
0.0
 27
1.0
 37
0.0
 76
     0
330
B
  0
LAYOUT
  5
20
102
{ACAD_XDICTIONARY
360
95B
102
}
102
{ACAD_REACTORS
330
1E
102
}
330
1E
100
AcDbPlotSettings
  1

  2
クセロPDF2.pc3
  4
A3
  6

 40
3.174999952316282
 41
3.174999952316282
 42
3.17498779296875
 43
3.17498779296875
 44
419.9466552734373
 45
296.9259948730469
 46
0.0
 47
0.0
 48
441.3880824578116
 49
195.211513836492
140
1283.38308245781
141
790.5615138364923
142
1.0
143
2.048861521241269
 70
 14512
 72
     1
 73
     0
 74
     4
  7
monochrome.stb
 75
     0
147
0.4880759336991046
148
-441.3880824578116
149
-195.211513836492
100
AcDbLayout
  1
Model
 70
     0
 71
     0
 10
0.0
 20
0.0
 11
0.0
 21
0.0
 12
0.0
 22
0.0
 32
0.0
 14
0.0
 24
0.0
 34
0.0
 15
0.0
 25
0.0
 35
0.0
146
0.0
 13
0.0
 23
0.0
 33
0.0
 16
0.0
 26
0.0
 36
0.0
 17
0.0
 27
0.0
 37
0.0
 76
     0
330
A
  0
MLINESTYLE
  5
1C
102
{ACAD_REACTORS
330
1B
102
}
330
1B
100
AcDbMlineStyle
  2
STANDARD
 70
     0
  3

 62
     0
 51
90.0
 52
90.0
 71
     2
 49
0.5
 62
   256
  6
BYLAYER
 49
-0.5
 62
   256
  6
BYLAYER
  0
ACDBPLACEHOLDER
  5
1D
102
{ACAD_REACTORS
330
1F
102
}
330
1F
  0
XRECORD
  5
95A
102
{ACAD_REACTORS
330
958
102
}
330
958
100
AcDbXrecord
280
     1
340
27B
  0
XRECORD
  5
959
102
{ACAD_REACTORS
330
958
102
}
330
958
100
AcDbXrecord
280
     1
340
27A
  0
DICTIONARYVAR
  5
937
102
{ACAD_REACTORS
330
936
102
}
330
936
100
DictionaryVariables
280
     0
  1
1
  0
DICTIONARYVAR
  5
938
102
{ACAD_REACTORS
330
936
102
}
330
936
100
DictionaryVariables
280
     0
  1

  0
XRECORD
  5
935
102
{ACAD_REACTORS
330
934
102
}
330
934
100
AcDbXrecord
280
     1
  0
DICTIONARY
  5
95D
330
21
100
AcDbDictionary
280
     1
281
     1
  3
ACAD_XREC_ROUNDTRIP
360
95E
  0
DICTIONARY
  5
95B
330
20
100
AcDbDictionary
280
     1
281
     1
  3
ACAD_XREC_ROUNDTRIP
360
95C
  0
XRECORD
  5
95E
102
{ACAD_REACTORS
330
95D
102
}
330
95D
100
AcDbXrecord
280
     1
102
SHADEPLOT
 70
     0
102
SHADEPLOTRESLEVEL
 70
     2
102
SHADEPLOTCUSTOMDPI
 70
   300
  0
XRECORD
  5
95C
102
{ACAD_REACTORS
330
95B
102
}
330
95B
100
AcDbXrecord
280
     1
102
SHADEPLOT
 70
     0
102
SHADEPLOTRESLEVEL
 70
     2
102
SHADEPLOTCUSTOMDPI
 70
   150
  0
ENDSEC
  0
EOF
